  0
SECTION
  2
HEADER
  9
$ACADVER
  1
AC1009
  9
$INSBASE
 10
0.0
 20
0.0
 30
0.0
  9
$EXTMIN
 10
-270.01647823492112
 20
-405.76244757968732
 30
-0.0015258207003583
  9
$EXTMAX
 10
270.0164807494923
 20
397.08808227102492
 30
0.0000000349246037
  9
$LIMMIN
 10
0.0
 20
0.0
  9
$LIMMAX
 10
0.0
 20
0.0
  9
$ORTHOMODE
 70
     0
  9
$REGENMODE
 70
     1
  9
$FILLMODE
 70
     1
  9
$QTEXTMODE
 70
     0
  9
$MIRRTEXT
 70
     1
  9
$DRAGMODE
 70
     2
  9
$LTSCALE
 40
15.24
  9
$OSMODE
 70
   231
  9
$ATTMODE
 70
     1
  9
$TEXTSIZE
 40
0.0
  9
$TRACEWID
 40
1.0
  9
$TEXTSTYLE
  7
STANDARD
  9
$CLAYER
  8
DATA
  9
$CELTYPE
  6
BYLAYER
  9
$CECOLOR
 62
   256
  9
$DIMSCALE
 40
1.0
  9
$DIMASZ
 40
0.18
  9
$DIMEXO
 40
0.0625
  9
$DIMDLI
 40
0.38
  9
$DIMRND
 40
0.0
  9
$DIMDLE
 40
0.0
  9
$DIMEXE
 40
0.18
  9
$DIMTP
 40
0.0
  9
$DIMTM
 40
0.0
  9
$DIMTXT
 40
0.18
  9
$DIMCEN
 40
0.09
  9
$DIMTSZ
 40
0.0
  9
$DIMTOL
 70
     0
  9
$DIMLIM
 70
     0
  9
$DIMTIH
 70
     1
  9
$DIMTOH
 70
     1
  9
$DIMSE1
 70
     0
  9
$DIMSE2
 70
     0
  9
$DIMTAD
 70
     0
  9
$DIMZIN
 70
     0
  9
$DIMBLK
  1

  9
$DIMASO
 70
     1
  9
$DIMSHO
 70
     1
  9
$DIMPOST
  1

  9
$DIMAPOST
  1

  9
$DIMALT
 70
     0
  9
$DIMALTD
 70
     2
  9
$DIMALTF
 40
25.399999999999999
  9
$DIMLFAC
 40
1.0
  9
$DIMTOFL
 70
     0
  9
$DIMTVP
 40
0.0
  9
$DIMTIX
 70
     0
  9
$DIMSOXD
 70
     0
  9
$DIMSAH
 70
     0
  9
$DIMBLK1
  1

  9
$DIMBLK2
  1

  9
$DIMSTYLE
  2
STANDARD
  9
$DIMCLRD
 70
     0
  9
$DIMCLRE
 70
     0
  9
$DIMCLRT
 70
     0
  9
$DIMTFAC
 40
1.0
  9
$DIMGAP
 40
0.09
  9
$LUNITS
 70
     2
  9
$LUPREC
 70
     4
  9
$SKETCHINC
 40
0.1
  9
$FILLETRAD
 40
0.0
  9
$AUNITS
 70
     0
  9
$AUPREC
 70
     0
  9
$MENU
  1
acad
  9
$ELEVATION
 40
0.0
  9
$PELEVATION
 40
0.0
  9
$THICKNESS
 40
0.0
  9
$LIMCHECK
 70
     0
  9
$BLIPMODE
 70
     0
  9
$CHAMFERA
 40
0.0
  9
$CHAMFERB
 40
0.0
  9
$SKPOLY
 70
     0
  9
$TDCREATE
 40
2456769.7780555552
  9
$TDUPDATE
 40
2456769.779255949
  9
$TDINDWG
 40
0.0003512847
  9
$TDUSRTIMER
 40
0.0003512269
  9
$USRTIMER
 70
     1
  9
$ANGBASE
 50
0.0
  9
$ANGDIR
 70
     0
  9
$PDMODE
 70
     1
  9
$PDSIZE
 40
-2.0
  9
$PLINEWID
 40
0.0
  9
$COORDS
 70
     2
  9
$SPLFRAME
 70
     0
  9
$SPLINETYPE
 70
     6
  9
$SPLINESEGS
 70
     8
  9
$ATTDIA
 70
     0
  9
$ATTREQ
 70
     1
  9
$HANDLING
 70
     1
  9
$HANDSEED
  5
2B7
  9
$SURFTAB1
 70
     6
  9
$SURFTAB2
 70
     6
  9
$SURFTYPE
 70
     6
  9
$SURFU
 70
     6
  9
$SURFV
 70
     6
  9
$UCSNAME
  2

  9
$UCSORG
 10
0.0
 20
0.0
 30
0.0
  9
$UCSXDIR
 10
1.0
 20
0.0
 30
0.0
  9
$UCSYDIR
 10
0.0
 20
1.0
 30
0.0
  9
$PUCSNAME
  2

  9
$PUCSORG
 10
0.0
 20
0.0
 30
0.0
  9
$PUCSXDIR
 10
1.0
 20
0.0
 30
0.0
  9
$PUCSYDIR
 10
0.0
 20
1.0
 30
0.0
  9
$USERI1
 70
     0
  9
$USERI2
 70
     0
  9
$USERI3
 70
     0
  9
$USERI4
 70
     0
  9
$USERI5
 70
     0
  9
$USERR1
 40
0.0
  9
$USERR2
 40
0.0
  9
$USERR3
 40
0.0
  9
$USERR4
 40
0.0
  9
$USERR5
 40
0.0
  9
$WORLDVIEW
 70
     1
  9
$SHADEDGE
 70
     3
  9
$SHADEDIF
 70
    70
  9
$TILEMODE
 70
     1
  9
$MAXACTVP
 70
    64
  9
$PLIMCHECK
 70
     0
  9
$PEXTMIN
 10
1.0000000000000000E+020
 20
1.0000000000000000E+020
 30
1.0000000000000000E+020
  9
$PEXTMAX
 10
-1.0000000000000000E+020
 20
-1.0000000000000000E+020
 30
-1.0000000000000000E+020
  9
$PLIMMIN
 10
0.0
 20
0.0
  9
$PLIMMAX
 10
12.0
 20
9.0
  9
$UNITMODE
 70
     0
  9
$VISRETAIN
 70
     0
  9
$PLINEGEN
 70
     1
  9
$PSLTSCALE
 70
     0
  0
ENDSEC
  0
SECTION
  2
TABLES
  0
TABLE
  2
VPORT
 70
     1
  0
VPORT
  2
*ACTIVE
 70
     0
 10
0.0
 20
0.0
 11
1.0
 21
1.0
 12
0.0000012572855894
 22
-3.531813134582193
 13
0.0
 23
0.0
 14
1.0
 24
1.0
 15
0.0
 25
0.0
 16
0.0
 26
0.0
 36
1.0
 17
0.0
 27
0.0
 37
0.0
 40
807.50763793620388
 41
2.1644908616187979
 42
50.0
 43
0.0
 44
0.0
 50
0.0
 51
0.0
 71
     0
 72
  2000
 73
     1
 74
     1
 75
     0
 76
     0
 77
     0
 78
     0
  0
ENDTAB
  0
TABLE
  2
LTYPE
 70
    11
  0
LTYPE
  2
CONTINUOUS
 70
     0
  3
Solid line
 72
    65
 73
     0
 40
0.0
  0
LTYPE
  2
STYLE_01
 70
     0
  3

 72
    65
 73
     2
 40
0.4166412353515625
 49
0.208282470703125
 49
-0.2083587646484375
  0
ENDTAB
  0
TABLE
  2
LAYER
 70
     6
  0
LAYER
  2
0
 70
     0
 62
     7
  6
CONTINUOUS
  0
LAYER
  2
DATA
 70
     0
 62
     7
  6
CONTINUOUS
  0
LAYER
  2
HIBINO-BASE
 70
     0
 62
     7
  6
CONTINUOUS
  0
LAYER
  2
PATTERN_FILL
 70
     0
 62
     7
  6
CONTINUOUS
  0
LAYER
  2
SPEC
 70
     0
 62
     7
  6
CONTINUOUS
  0
LAYER
  2
DIMNSIONS
 70
     0
 62
     7
  6
CONTINUOUS
  0
ENDTAB
  0
TABLE
  2
STYLE
 70
     3
  0
STYLE
  2
STANDARD
 70
     0
 40
0.0
 41
1.0
 50
0.0
 71
     0
 42
0.0
  3
txt
  4
BIGFONT.SHX
  0
STYLE
  2
_______
 70
     0
 40
0.0
 41
1.0
 50
0.0
 71
     0
 42
0.0
  3
txt
  4
ＭＳ ゴシック
  0
ENDTAB
  0
TABLE
  2
VIEW
 70
     0
  0
ENDTAB
  0
TABLE
  2
UCS
 70
     0
  0
ENDTAB
  0
TABLE
  2
APPID
 70
     4
  0
APPID
  2
ACAD
 70
     0
  0
APPID
  2
ACADANNOTATIVE
 70
     0
  0
APPID
  2
ACAD_NAV_VCDISPLAY
 70
     0
  0
APPID
  2
ACAD_MLEADERVER
 70
     0
  0
ENDTAB
  0
TABLE
  2
DIMSTYLE
 70
     2
  0
DIMSTYLE
  2
STANDARD
 70
     0
  3

  4

  5

  6

  7

 40
1.0
 41
0.18
 42
0.0625
 43
0.38
 44
0.18
 45
0.0
 46
0.0
 47
0.0
 48
0.0
140
0.18
141
0.09
142
0.0
143
25.399999999999999
144
1.0
145
0.0
146
1.0
147
0.09
 71
     0
 72
     0
 73
     1
 74
     1
 75
     0
 76
     0
 77
     0
 78
     0
170
     0
171
     2
172
     0
173
     0
174
     0
175
     0
176
     0
177
     0
178
     0
  0
ENDTAB
  0
ENDSEC
  0
SECTION
  2
BLOCKS
  0
BLOCK
  8
0
  2
$MODEL_SPACE
 70
     0
 10
0.0
 20
0.0
 30
0.0
  3
$MODEL_SPACE
  1

  0
ENDBLK
  5
242
  8
0
  0
BLOCK
 67
     1
  8
0
  2
$PAPER_SPACE
 70
     0
 10
0.0
 20
0.0
 30
0.0
  3
$PAPER_SPACE
  1

  0
ENDBLK
  5
23E
 67
     1
  8
0
  0
BLOCK
  8
DATA
  2
CALLOUT
 70
     2
 10
0.0
 20
0.0
 30
0.0
  3
CALLOUT
  1

  0
LINE
  5
2F
  8
0
  6
CONTINUOUS
 62
     7
 10
-3.1749999996219982
 20
5.4992613133764641
 30
0.0
 11
0.0
 21
0.0
 31
0.0
  0
LINE
  5
30
  8
0
  6
CONTINUOUS
 62
     7
 10
0.0
 20
0.0
 30
0.0
 11
33.48276409689791
 21
0.0
 31
0.0
  0
LINE
  5
31
  8
0
  6
CONTINUOUS
 62
     7
 10
32.530264096897909
 20
0.0
 30
0.0
 11
33.48276409689791
 21
0.0
 31
0.0
  0
SOLID
  5
32
  8
0
 62
     7
 10
33.48276409689791
 20
0.0
 30
0.0
 11
23.957764096897911
 21
-2.552216057906445
 31
0.0
 12
23.957764096897911
 22
2.5522160579064441
 32
0.0
 13
23.957764096897911
 23
2.5522160579064441
 33
0.0
  0
TEXT
  5
33
  8
0
 62
     7
 10
-1.666143211203285
 20
10.50584469449004
 30
0.0
 40
8.1442057291666661
  1
ウインドスクリーン
 50
120.0
  7
_______
 11
-8.7192322663083868
 21
6.4337418299067162
 31
0.0
 73
     3
  0
ENDBLK
  5
34
  8
DATA
  0
ENDSEC
  0
SECTION
  2
ENTITIES
  0
LINE
  5
35
  8
HIBINO-BASE
  6
CONTINUOUS
 62
     7
 10
-269.99999999999989
 20
397.0636300000001
 30
0.0
 11
269.99999999999989
 21
397.0636300000001
 31
0.0
  0
LINE
  5
36
  8
HIBINO-BASE
  6
CONTINUOUS
 62
     7
 10
269.99999999999989
 20
-382.93637000000001
 30
0.0
 11
-269.99999999999989
 21
-382.93637000000001
 31
0.0
  0
LINE
  5
37
  8
HIBINO-BASE
  6
CONTINUOUS
 62
     7
 10
-269.99999999999989
 20
-382.93637000000001
 30
0.0
 11
-269.99999999999989
 21
397.0636300000001
 31
0.0
  0
LINE
  5
38
  8
HIBINO-BASE
  6
CONTINUOUS
 62
     7
 10
269.99999999999989
 20
397.0636300000001
 30
0.0
 11
269.99999999999989
 21
-382.93637000000001
 31
0.0
  0
LINE
  5
39
  8
HIBINO-BASE
  6
CONTINUOUS
 62
     7
 10
0.0000000000000213
 20
-315.43637000000001
 30
0.0
 11
269.99999999999989
 21
-315.43637000000001
 31
0.0
  0
LINE
  5
3A
  8
HIBINO-BASE
  6
CONTINUOUS
 62
     7
 10
0.0000000000000213
 20
-382.93637000000001
 30
0.0
 11
0.0000000000000213
 21
-315.43637000000001
 31
0.0
  0
TEXT
  5
3B
  8
HIBINO-BASE
 62
     7
 10
2.700000000000037
 20
-322.96244999999999
 30
0.0
 40
4.8865234374999993
  1
NOTE
 41
0.7
 11
2.7000000000000379
 21
-318.0759265625
 31
0.0
 73
     3
  0
LINE
  5
3C
  8
HIBINO-BASE
  6
CONTINUOUS
 62
     7
 10
105.0
 20
-382.93637000000001
 30
0.0
 11
105.0
 21
-315.43637000000001
 31
0.0
  0
TEXT
  5
3D
  8
HIBINO-BASE
 62
     7
 10
107.7
 20
-322.96244999999999
 30
0.0
 40
4.8865234374999993
  1
TITLE
 41
0.7
 11
107.7
 21
-318.0759265625
 31
0.0
 73
     3
  0
LINE
  5
3E
  8
HIBINO-BASE
  6
CONTINUOUS
 62
     7
 10
0.0000000000000213
 20
-352.93637000000001
 30
0.0
 11
269.99999999999989
 21
-352.93637000000001
 31
0.0
  0
TEXT
  5
3F
  8
HIBINO-BASE
 62
     7
 10
145.19999999999999
 20
-360.29349000000008
 30
0.0
 40
4.8865234374999993
  1
DRAWN
 41
0.7
 11
145.19999999999999
 21
-355.40696656250009
 31
0.0
 73
     3
  0
TEXT
  5
40
  8
HIBINO-BASE
 62
     7
 10
70.199999999999989
 20
-360.29349000000008
 30
0.0
 40
4.8865234374999993
  1
DATE
 41
0.7
 11
70.199999999999989
 21
-355.40696656250009
 31
0.0
 73
     3
  0
TEXT
  5
41
  8
HIBINO-BASE
 62
     7
 10
40.200000000000003
 20
-360.29349000000008
 30
0.0
 40
4.8865234374999993
  1
SCALE
 41
0.7
 11
40.200000000000003
 21
-355.40696656250009
 31
0.0
 73
     3
  0
TEXT
  5
42
  8
HIBINO-BASE
 62
     7
 10
107.7
 20
-360.29349000000008
 30
0.0
 40
4.8865234374999993
  1
DESIGN
 41
0.7
 11
107.7
 21
-355.40696656250009
 31
0.0
 73
     3
  0
TEXT
  5
43
  8
HIBINO-BASE
 62
     7
 10
220.19999999999999
 20
-360.29349000000008
 30
0.0
 40
4.8865234374999993
  1
DRAWING NO.
 41
0.7
 11
220.19999999999999
 21
-355.40696656250009
 31
0.0
 73
     3
  0
TEXT
  5
44
  8
HIBINO-BASE
 62
     7
 10
182.69999999999999
 20
-360.29349000000008
 30
0.0
 40
4.8865234374999993
  1
CHECK
 41
0.7
 11
182.69999999999999
 21
-355.40696656250009
 31
0.0
 73
     3
  0
LINE
  5
45
  8
HIBINO-BASE
  6
CONTINUOUS
 62
     7
 10
43.125000000000021
 20
-379.18637000000001
 30
0.0
 11
54.375000000000071
 21
-367.93637000000001
 31
0.0
  0
TEXT
  5
46
  8
HIBINO-BASE
 62
     7
 10
41.250000000000007
 20
-371.2632000000001
 30
0.0
 40
4.8865234374999993
  1
1
 41
0.7
 11
41.250000000000007
 21
-366.37667656250011
 31
0.0
 73
     3
  0
LINE
  5
47
  8
HIBINO-BASE
  6
CONTINUOUS
 62
     7
 10
37.500000000000021
 20
-382.93637000000001
 30
0.0
 11
37.500000000000021
 21
-352.93637000000001
 31
0.0
  0
LINE
  5
48
  8
HIBINO-BASE
  6
CONTINUOUS
 62
     7
 10
67.499999999999972
 20
-382.93637000000001
 30
0.0
 11
67.499999999999972
 21
-352.93637000000001
 31
0.0
  0
LINE
  5
49
  8
HIBINO-BASE
  6
CONTINUOUS
 62
     7
 10
142.49999999999989
 20
-352.93637000000001
 30
0.0
 11
142.49999999999989
 21
-382.93637000000001
 31
0.0
  0
LINE
  5
4A
  8
HIBINO-BASE
  6
CONTINUOUS
 62
     7
 10
217.50000000000011
 20
-352.93637000000001
 30
0.0
 11
217.50000000000011
 21
-382.93637000000001
 31
0.0
  0
LINE
  5
4B
  8
HIBINO-BASE
  6
CONTINUOUS
 62
     7
 10
179.99999999999989
 20
-382.93637000000001
 30
0.0
 11
179.99999999999989
 21
-352.93637000000001
 31
0.0
  0
TEXT
  5
4C
  8
HIBINO-BASE
 62
     7
 10
70.069620000000043
 20
-374.34543000000002
 30
0.0
 40
4.8865234374999993
  1
'14.04.
 41
0.7
 11
70.069620000000043
 21
-369.45890656249998
 31
0.0
 73
     3
  0
TEXT
  5
4D
  8
HIBINO-BASE
 62
     7
 10
52.500000000000021
 20
-376.88819999999998
 30
0.0
 40
4.8865234374999993
  1
3
 41
0.7
 11
52.500000000000021
 21
-372.00167656249999
 31
0.0
 73
     3
  0
TEXT
  5
4E
  8
HIBINO-BASE
 62
     7
 10
147.01743003310381
 20
-374.34543000000002
 30
0.0
 40
4.8865234374999993
  1
N.Sasaki
 41
0.7
 11
147.01743003310381
 21
-369.45890656249998
 31
0.0
 73
     3
  0
TEXT
  5
4F
  8
HIBINO-BASE
 62
     7
 10
11.65000000000008
 20
-377.00837000000001
 30
0.0
 40
9.7730468749999986
  1
A4
 41
0.7
 11
11.65000000000008
 21
-367.23532312499998
 31
0.0
 73
     3
  0
TEXT
  5
50
  8
HIBINO-BASE
 62
     7
 10
2.8750000000000062
 20
-360.794735
 30
0.0
 40
4.8865234374999993
  1
PAPER SIZE
 41
0.7
 11
2.8750000000000071
 21
-355.90821156250001
 31
0.0
 73
     3
  0
TEXT
  5
51
  8
HIBINO-BASE
 62
     7
 10
-248.44799999999989
 20
-402.1624033999999
 30
0.0
 40
10.800132539062499
  1
Hibino Corporation
 41
0.7
 11
-248.44799999999989
 21
-391.36227086093749
 31
0.0
 73
     3
  0
TEXT
  5
52
  8
HIBINO-BASE
 62
     7
 10
150.20517000000001
 20
-402.1624033999999
 30
0.0
 40
10.800132539062499
  1
ヒビノ株式会社
 41
0.7
 11
150.20517000000001
 21
-391.36227086093749
 31
0.0
 73
     3
  0
LINE
  5
53
  8
PATTERN_FILL
  6
CONTINUOUS
 62
     7
 10
-100.0
 20
83.84999999999998
 30
0.0
 11
-100.0
 21
116.15000000000001
 31
0.0
  0
LINE
  5
54
  8
PATTERN_FILL
  6
CONTINUOUS
 62
     7
 10
-105.0
 20
84.643486723868605
 30
0.0
 11
-105.0
 21
115.35651327613139
 31
0.0
  0
LINE
  5
55
  8
PATTERN_FILL
  6
CONTINUOUS
 62
     7
 10
-110.0
 20
86.687505868545898
 30
0.0
 11
-110.0
 21
112.68158113170431
 31
0.0
  0
LINE
  5
56
  8
PATTERN_FILL
  6
CONTINUOUS
 62
     7
 10
-115.0
 20
94.014809944538072
 30
0.0
 11
-115.0
 21
105.9851900554619
 31
0.0
  0
LINE
  5
57
  8
PATTERN_FILL
  6
CONTINUOUS
 62
     7
 10
-95.000000000000057
 20
84.643486723868605
 30
0.0
 11
-95.000000000000057
 21
115.35651327613139
 31
0.0
  0
LINE
  5
58
  8
PATTERN_FILL
  6
CONTINUOUS
 62
     7
 10
-90.000000000000057
 20
87.318418868295623
 30
0.0
 11
-90.000000000000057
 21
112.68158113170431
 31
0.0
  0
LINE
  5
59
  8
PATTERN_FILL
  6
CONTINUOUS
 62
     7
 10
-85.000000000000028
 20
94.014809944538072
 30
0.0
 11
-85.000000000000028
 21
105.9851900554619
 31
0.0
  0
LINE
  5
5A
  8
PATTERN_FILL
  6
CONTINUOUS
 62
     7
 10
-116.15000000000001
 20
100.0
 30
0.0
 11
-83.84999999999998
 21
100.0
 31
0.0
  0
LINE
  5
5B
  8
PATTERN_FILL
  6
CONTINUOUS
 62
     7
 10
-115.35651327613139
 20
105.0
 30
0.0
 11
-84.643486723868634
 21
105.0
 31
0.0
  0
LINE
  5
5C
  8
PATTERN_FILL
  6
CONTINUOUS
 62
     7
 10
-112.68158113170431
 20
110.0
 30
0.0
 11
-87.318418868295652
 21
110.0
 31
0.0
  0
LINE
  5
5D
  8
PATTERN_FILL
  6
CONTINUOUS
 62
     7
 10
-109.33519005546189
 20
115.0
 30
0.0
 11
-97.364809944538081
 21
115.0
 31
0.0
  0
LINE
  5
5E
  8
PATTERN_FILL
  6
CONTINUOUS
 62
     7
 10
-115.35651327613139
 20
95.0
 30
0.0
 11
-84.643486723868634
 21
95.0
 31
0.0
  0
LINE
  5
5F
  8
PATTERN_FILL
  6
CONTINUOUS
 62
     7
 10
-113.3124941314541
 20
90.0
 30
0.0
 11
-86.687505868545898
 21
90.0
 31
0.0
  0
LINE
  5
60
  8
PATTERN_FILL
  6
CONTINUOUS
 62
     7
 10
-105.9851900554619
 20
85.0
 30
0.0
 11
-94.014809944538072
 21
85.0
 31
0.0
  0
ARC
  5
61
  8
PATTERN_FILL
  6
CONTINUOUS
 62
     7
 10
-35.400000000000013
 20
-25.0
 30
0.0
 40
53.197673821324159
 50
157.69347662094151
 51
163.28528157313991
  0
ARC
  5
62
  8
PATTERN_FILL
  6
CONTINUOUS
 62
     7
 10
-37.083254415060232
 20
-26.175000000000001
 30
0.0
 40
54.801809450426177
 50
150.3201261529353
 51
162.50462821178539
  0
ARC
  5
63
  8
PATTERN_FILL
  6
CONTINUOUS
 62
     7
 10
-37.083254415060232
 20
-26.175000000000001
 30
0.0
 40
57.670085768537398
 50
145.77628002006941
 51
163.40069734794631
  0
ARC
  5
64
  8
PATTERN_FILL
  6
CONTINUOUS
 62
     7
 10
-37.083254415060232
 20
-26.175000000000001
 30
0.0
 40
60.551129354125983
 50
142.05364989184119
 51
164.21167888460789
  0
ARC
  5
65
  8
PATTERN_FILL
  6
CONTINUOUS
 62
     7
 10
-37.083254415060232
 20
-26.175000000000001
 30
0.0
 40
63.44320089315903
 50
138.9031529434142
 51
164.9488595882832
  0
ARC
  5
66
  8
PATTERN_FILL
  6
CONTINUOUS
 62
     7
 10
-37.083254415060232
 20
-26.175000000000001
 30
0.0
 40
66.344858226386819
 50
136.17932384804701
 51
165.62166106266341
  0
ARC
  5
67
  8
PATTERN_FILL
  6
CONTINUOUS
 62
     7
 10
-37.083254415060232
 20
-26.175000000000001
 30
0.0
 40
78.02590664079419
 50
135.08606523710429
 51
167.81037416337301
  0
ARC
  5
68
  8
PATTERN_FILL
  6
CONTINUOUS
 62
     7
 10
-37.083254415060232
 20
-26.175000000000001
 30
0.0
 40
79.981929768277553
 50
135.81834897693119
 51
168.11289087227769
  0
ARC
  5
69
  8
PATTERN_FILL
  6
CONTINUOUS
 62
     7
 10
-37.083254415060232
 20
-26.175000000000001
 30
0.0
 40
76.072170501295432
 50
134.5440020910039
 51
167.4923093328477
  0
ARC
  5
6A
  8
PATTERN_FILL
  6
CONTINUOUS
 62
     7
 10
-37.083254415060232
 20
-26.175000000000001
 30
0.0
 40
74.120902196603154
 50
134.1791589004545
 51
167.1574873079999
  0
ARC
  5
6B
  8
PATTERN_FILL
  6
CONTINUOUS
 62
     7
 10
-37.083254415060232
 20
-26.175000000000001
 30
0.0
 40
72.172301889981654
 50
133.98861567405379
 51
166.80457277451319
  0
ARC
  5
6C
  8
PATTERN_FILL
  6
CONTINUOUS
 62
     7
 10
-37.083254415060232
 20
-26.175000000000001
 30
0.0
 40
70.226591671238666
 50
133.97781941505221
 51
166.43208762534789
  0
ARC
  5
6D
  8
PATTERN_FILL
  6
CONTINUOUS
 62
     7
 10
-37.083254415060232
 20
-26.175000000000001
 30
0.0
 40
68.284018594537429
 50
134.5526395888154
 51
166.03839180356019
  0
ARC
  5
6E
  8
PATTERN_FILL
  6
CONTINUOUS
 62
     7
 10
-164.5999999999994
 20
-25.0
 30
0.0
 40
53.197673821324223
 50
16.714718426860021
 51
22.306523378634211
  0
ARC
  5
6F
  8
PATTERN_FILL
  6
CONTINUOUS
 62
     7
 10
-162.91674558493909
 20
-26.175000000000001
 30
0.0
 40
54.80180945042612
 50
17.495371788214619
 51
29.67987384663585
  0
ARC
  5
70
  8
PATTERN_FILL
  6
CONTINUOUS
 62
     7
 10
-162.91674558493909
 20
-26.175000000000001
 30
0.0
 40
57.670085768537341
 50
16.599302652053652
 51
34.22371997992915
  0
ARC
  5
71
  8
PATTERN_FILL
  6
CONTINUOUS
 62
     7
 10
-162.91674558493909
 20
-26.175000000000001
 30
0.0
 40
60.551129354125919
 50
15.788321115392071
 51
37.946350108124228
  0
ARC
  5
72
  8
PATTERN_FILL
  6
CONTINUOUS
 62
     7
 10
-162.91674558493909
 20
-26.175000000000001
 30
0.0
 40
63.443200893158981
 50
15.051140411716791
 51
41.096847056609072
  0
ARC
  5
73
  8
PATTERN_FILL
  6
CONTINUOUS
 62
     7
 10
-162.91674558493909
 20
-26.175000000000001
 30
0.0
 40
66.344858226386819
 50
14.37833893733662
 51
43.820676152016397
  0
ARC
  5
74
  8
PATTERN_FILL
  6
CONTINUOUS
 62
     7
 10
-162.91674558493909
 20
-26.175000000000001
 30
0.0
 40
78.025906640794119
 50
12.18962583662694
 51
44.913934762897448
  0
ARC
  5
75
  8
PATTERN_FILL
  6
CONTINUOUS
 62
     7
 10
-162.91674558493909
 20
-26.175000000000001
 30
0.0
 40
79.981929768277553
 50
11.887109127722271
 51
44.181651023068987
  0
ARC
  5
76
  8
PATTERN_FILL
  6
CONTINUOUS
 62
     7
 10
-162.91674558493909
 20
-26.175000000000001
 30
0.0
 40
76.072170501295403
 50
12.50769066715222
 51
45.455997908996672
  0
ARC
  5
77
  8
PATTERN_FILL
  6
CONTINUOUS
 62
     7
 10
-162.91674558493909
 20
-26.175000000000001
 30
0.0
 40
74.120902196603097
 50
12.84251269200006
 51
45.820841099547103
  0
ARC
  5
78
  8
PATTERN_FILL
  6
CONTINUOUS
 62
     7
 10
-162.91674558493909
 20
-26.175000000000001
 30
0.0
 40
72.172301889981625
 50
13.195427225486711
 51
46.011384325946409
  0
ARC
  5
79
  8
PATTERN_FILL
  6
CONTINUOUS
 62
     7
 10
-162.91674558493909
 20
-26.175000000000001
 30
0.0
 40
70.226591671238651
 50
13.56791237465208
 51
46.022180584948039
  0
ARC
  5
7A
  8
PATTERN_FILL
  6
CONTINUOUS
 62
     7
 10
-162.91674558493909
 20
-26.175000000000001
 30
0.0
 40
68.284018594537386
 50
13.9616081964398
 51
45.447360411234598
  0
ARC
  5
7B
  8
PATTERN_FILL
  6
CONTINUOUS
 62
     7
 10
-37.083254415060232
 20
-26.175000000000001
 30
0.0
 40
81.940076103195324
 50
136.76889308700731
 51
162.76394687694901
  0
ARC
  5
7C
  8
PATTERN_FILL
  6
CONTINUOUS
 62
     7
 10
-37.083254415060232
 20
-26.175000000000001
 30
0.0
 40
83.900196985091796
 50
137.96800343147319
 51
158.71312211482899
  0
ARC
  5
7D
  8
PATTERN_FILL
  6
CONTINUOUS
 62
     7
 10
-37.083254415060232
 20
-26.175000000000001
 30
0.0
 40
85.862157185089217
 50
139.13747369897899
 51
155.45794275849531
  0
ARC
  5
7E
  8
PATTERN_FILL
  6
CONTINUOUS
 62
     7
 10
-37.083254415060232
 20
-26.175000000000001
 30
0.0
 40
87.825833436504993
 50
140.46959911774519
 51
152.69790419454901
  0
ARC
  5
7F
  8
PATTERN_FILL
  6
CONTINUOUS
 62
     7
 10
-37.083254415060232
 20
-26.175000000000001
 30
0.0
 40
89.791113152452169
 50
142.30985468586221
 51
150.28596747631121
  0
ARC
  5
80
  8
PATTERN_FILL
  6
CONTINUOUS
 62
     7
 10
-162.91674558493909
 20
-26.175000000000001
 30
0.0
 40
81.940076103195324
 50
17.2360531229901
 51
43.231106912992757
  0
ARC
  5
81
  8
PATTERN_FILL
  6
CONTINUOUS
 62
     7
 10
-162.91674558493909
 20
-26.175000000000001
 30
0.0
 40
83.900196985091739
 50
21.28687788525659
 51
42.031996568526971
  0
ARC
  5
82
  8
PATTERN_FILL
  6
CONTINUOUS
 62
     7
 10
-162.91674558493909
 20
-26.175000000000001
 30
0.0
 40
85.862157185089146
 50
24.542057241473181
 51
40.862526301020857
  0
ARC
  5
83
  8
PATTERN_FILL
  6
CONTINUOUS
 62
     7
 10
-162.91674558493909
 20
-26.175000000000001
 30
0.0
 40
87.825833436504936
 50
27.302095805428529
 51
39.530400882254732
  0
ARC
  5
84
  8
PATTERN_FILL
  6
CONTINUOUS
 62
     7
 10
-162.91674558493909
 20
-26.175000000000001
 30
0.0
 40
89.791113152452169
 50
29.714032523653049
 51
37.690145314138483
  0
ARC
  5
85
  8
PATTERN_FILL
  6
CONTINUOUS
 62
     7
 10
-162.91674558493909
 20
-26.175000000000001
 30
0.0
 40
91.757893303498591
 50
31.863319544097472
 51
34.566465494476468
  0
ARC
  5
86
  8
PATTERN_FILL
  6
CONTINUOUS
 62
     7
 10
84.600000000000023
 20
-25.0
 30
0.0
 40
53.197673821324223
 50
157.69347662094151
 51
163.28528157313991
  0
ARC
  5
87
  8
PATTERN_FILL
  6
CONTINUOUS
 62
     7
 10
82.916745584939818
 20
-26.175000000000001
 30
0.0
 40
54.801809450426177
 50
150.3201261529353
 51
162.50462821178539
  0
ARC
  5
88
  8
PATTERN_FILL
  6
CONTINUOUS
 62
     7
 10
82.916745584939818
 20
-26.175000000000001
 30
0.0
 40
57.670085768537398
 50
145.77628002006941
 51
163.40069734794639
  0
ARC
  5
89
  8
PATTERN_FILL
  6
CONTINUOUS
 62
     7
 10
82.916745584939818
 20
-26.175000000000001
 30
0.0
 40
60.551129354125919
 50
142.05364989184119
 51
164.21167888460801
  0
ARC
  5
8A
  8
PATTERN_FILL
  6
CONTINUOUS
 62
     7
 10
82.916745584939818
 20
-26.175000000000001
 30
0.0
 40
63.44320089315903
 50
138.9031529434142
 51
164.9488595882832
  0
ARC
  5
8B
  8
PATTERN_FILL
  6
CONTINUOUS
 62
     7
 10
82.916745584939818
 20
-26.175000000000001
 30
0.0
 40
66.344858226386819
 50
136.17932384804701
 51
165.62166106266341
  0
ARC
  5
8C
  8
PATTERN_FILL
  6
CONTINUOUS
 62
     7
 10
82.916745584939818
 20
-26.175000000000001
 30
0.0
 40
78.02590664079419
 50
135.08606523710429
 51
167.81037416337301
  0
ARC
  5
8D
  8
PATTERN_FILL
  6
CONTINUOUS
 62
     7
 10
82.916745584939818
 20
-26.175000000000001
 30
0.0
 40
79.98192976827761
 50
135.81834897693119
 51
168.11289087227769
  0
ARC
  5
8E
  8
PATTERN_FILL
  6
CONTINUOUS
 62
     7
 10
82.916745584939818
 20
-26.175000000000001
 30
0.0
 40
76.072170501295432
 50
134.5440020910039
 51
167.4923093328477
  0
ARC
  5
8F
  8
PATTERN_FILL
  6
CONTINUOUS
 62
     7
 10
82.916745584939818
 20
-26.175000000000001
 30
0.0
 40
74.120902196603154
 50
134.1791589004545
 51
167.15748730799999
  0
ARC
  5
90
  8
PATTERN_FILL
  6
CONTINUOUS
 62
     7
 10
82.916745584939818
 20
-26.175000000000001
 30
0.0
 40
72.172301889981625
 50
133.98861567405379
 51
166.80457277451319
  0
ARC
  5
91
  8
PATTERN_FILL
  6
CONTINUOUS
 62
     7
 10
82.916745584939818
 20
-26.175000000000001
 30
0.0
 40
70.226591671238666
 50
133.97781941505221
 51
166.432087625348
  0
ARC
  5
92
  8
PATTERN_FILL
  6
CONTINUOUS
 62
     7
 10
82.916745584939818
 20
-26.175000000000001
 30
0.0
 40
68.284018594537429
 50
134.5526395888154
 51
166.03839180356019
  0
ARC
  5
93
  8
PATTERN_FILL
  6
CONTINUOUS
 62
     7
 10
-44.599999999999447
 20
-25.0
 30
0.0
 40
53.197673821324223
 50
16.714718426860021
 51
22.306523378634211
  0
ARC
  5
94
  8
PATTERN_FILL
  6
CONTINUOUS
 62
     7
 10
-42.916745584939108
 20
-26.175000000000001
 30
0.0
 40
54.80180945042612
 50
17.495371788214619
 51
29.67987384663585
  0
ARC
  5
95
  8
PATTERN_FILL
  6
CONTINUOUS
 62
     7
 10
-42.916745584939108
 20
-26.175000000000001
 30
0.0
 40
57.670085768537341
 50
16.599302652053652
 51
34.22371997992915
  0
ARC
  5
96
  8
PATTERN_FILL
  6
CONTINUOUS
 62
     7
 10
-42.916745584939108
 20
-26.175000000000001
 30
0.0
 40
60.551129354125919
 50
15.788321115392071
 51
37.946350108124193
  0
ARC
  5
97
  8
PATTERN_FILL
  6
CONTINUOUS
 62
     7
 10
-42.916745584939108
 20
-26.175000000000001
 30
0.0
 40
63.443200893158981
 50
15.051140411716791
 51
41.096847056609029
  0
ARC
  5
98
  8
PATTERN_FILL
  6
CONTINUOUS
 62
     7
 10
-42.916745584939108
 20
-26.175000000000001
 30
0.0
 40
66.344858226386819
 50
14.37833893733662
 51
43.820676152016397
  0
ARC
  5
99
  8
PATTERN_FILL
  6
CONTINUOUS
 62
     7
 10
-42.916745584939108
 20
-26.175000000000001
 30
0.0
 40
78.025906640794119
 50
12.18962583662694
 51
44.913934762897448
  0
ARC
  5
9A
  8
PATTERN_FILL
  6
CONTINUOUS
 62
     7
 10
-42.916745584939108
 20
-26.175000000000001
 30
0.0
 40
79.981929768277553
 50
11.887109127722271
 51
44.18165102306903
  0
ARC
  5
9B
  8
PATTERN_FILL
  6
CONTINUOUS
 62
     7
 10
-42.916745584939108
 20
-26.175000000000001
 30
0.0
 40
76.072170501295403
 50
12.50769066715222
 51
45.455997908996721
  0
ARC
  5
9C
  8
PATTERN_FILL
  6
CONTINUOUS
 62
     7
 10
-42.916745584939108
 20
-26.175000000000001
 30
0.0
 40
74.120902196603097
 50
12.84251269200006
 51
45.820841099547053
  0
ARC
  5
9D
  8
PATTERN_FILL
  6
CONTINUOUS
 62
     7
 10
-42.916745584939108
 20
-26.175000000000001
 30
0.0
 40
72.172301889981625
 50
13.195427225486711
 51
46.011384325946409
  0
ARC
  5
9E
  8
PATTERN_FILL
  6
CONTINUOUS
 62
     7
 10
-42.916745584939108
 20
-26.175000000000001
 30
0.0
 40
70.226591671238651
 50
13.56791237465208
 51
46.022180584948039
  0
ARC
  5
9F
  8
PATTERN_FILL
  6
CONTINUOUS
 62
     7
 10
-42.916745584939108
 20
-26.175000000000001
 30
0.0
 40
68.284018594537386
 50
13.9616081964398
 51
45.447360411234598
  0
ARC
  5
A0
  8
PATTERN_FILL
  6
CONTINUOUS
 62
     7
 10
82.916745584939818
 20
-26.175000000000001
 30
0.0
 40
81.940076103195366
 50
136.76889308700731
 51
162.76394687694901
  0
ARC
  5
A1
  8
PATTERN_FILL
  6
CONTINUOUS
 62
     7
 10
82.916745584939818
 20
-26.175000000000001
 30
0.0
 40
83.900196985091796
 50
137.96800343147319
 51
158.71312211482899
  0
ARC
  5
A2
  8
PATTERN_FILL
  6
CONTINUOUS
 62
     7
 10
82.916745584939818
 20
-26.175000000000001
 30
0.0
 40
85.862157185089217
 50
139.13747369897899
 51
155.45794275849531
  0
ARC
  5
A3
  8
PATTERN_FILL
  6
CONTINUOUS
 62
     7
 10
82.916745584939818
 20
-26.175000000000001
 30
0.0
 40
87.825833436504993
 50
140.46959911774519
 51
152.69790419454901
  0
ARC
  5
A4
  8
PATTERN_FILL
  6
CONTINUOUS
 62
     7
 10
82.916745584939818
 20
-26.175000000000001
 30
0.0
 40
89.791113152452169
 50
142.30985468586221
 51
150.28596747631121
  0
ARC
  5
A5
  8
PATTERN_FILL
  6
CONTINUOUS
 62
     7
 10
-42.916745584939108
 20
-26.175000000000001
 30
0.0
 40
81.940076103195267
 50
17.236053122990111
 51
43.231106912992722
  0
ARC
  5
A6
  8
PATTERN_FILL
  6
CONTINUOUS
 62
     7
 10
-42.916745584939108
 20
-26.175000000000001
 30
0.0
 40
83.900196985091739
 50
21.28687788525659
 51
42.031996568526971
  0
ARC
  5
A7
  8
PATTERN_FILL
  6
CONTINUOUS
 62
     7
 10
-42.916745584939108
 20
-26.175000000000001
 30
0.0
 40
85.862157185089174
 50
24.542057241473159
 51
40.862526301020857
  0
ARC
  5
A8
  8
PATTERN_FILL
  6
CONTINUOUS
 62
     7
 10
-42.916745584939108
 20
-26.175000000000001
 30
0.0
 40
87.825833436504936
 50
27.302095805428529
 51
39.530400882254732
  0
ARC
  5
A9
  8
PATTERN_FILL
  6
CONTINUOUS
 62
     7
 10
-42.916745584939108
 20
-26.175000000000001
 30
0.0
 40
89.791113152452169
 50
29.714032523653049
 51
37.690145314138483
  0
ARC
  5
AA
  8
PATTERN_FILL
  6
CONTINUOUS
 62
     7
 10
-42.916745584939108
 20
-26.175000000000001
 30
0.0
 40
91.757893303498591
 50
31.863319544097472
 51
34.566465494476468
  0
ARC
  5
AB
  8
PATTERN_FILL
  6
CONTINUOUS
 62
     7
 10
204.59999999999971
 20
-25.0
 30
0.0
 40
53.197673821324223
 50
157.69347662094151
 51
163.28528157313991
  0
ARC
  5
AC
  8
PATTERN_FILL
  6
CONTINUOUS
 62
     7
 10
202.91674558493941
 20
-26.175000000000011
 30
0.0
 40
54.801809450426177
 50
150.3201261529353
 51
162.50462821178539
  0
ARC
  5
AD
  8
PATTERN_FILL
  6
CONTINUOUS
 62
     7
 10
202.91674558493941
 20
-26.175000000000011
 30
0.0
 40
57.670085768537433
 50
145.77628002006941
 51
163.40069734794639
  0
ARC
  5
AE
  8
PATTERN_FILL
  6
CONTINUOUS
 62
     7
 10
202.91674558493941
 20
-26.175000000000011
 30
0.0
 40
60.551129354125941
 50
142.05364989184119
 51
164.21167888460789
  0
ARC
  5
AF
  8
PATTERN_FILL
  6
CONTINUOUS
 62
     7
 10
202.91674558493941
 20
-26.175000000000011
 30
0.0
 40
63.44320089315903
 50
138.9031529434142
 51
164.9488595882832
  0
ARC
  5
B0
  8
PATTERN_FILL
  6
CONTINUOUS
 62
     7
 10
202.91674558493941
 20
-26.175000000000011
 30
0.0
 40
66.344858226386833
 50
136.17932384804701
 51
165.62166106266341
  0
ARC
  5
B1
  8
PATTERN_FILL
  6
CONTINUOUS
 62
     7
 10
202.91674558493941
 20
-26.175000000000011
 30
0.0
 40
78.025906640794204
 50
135.08606523710429
 51
167.81037416337301
  0
ARC
  5
B2
  8
PATTERN_FILL
  6
CONTINUOUS
 62
     7
 10
202.91674558493941
 20
-26.175000000000011
 30
0.0
 40
79.981929768277624
 50
135.81834897693119
 51
168.11289087227769
  0
ARC
  5
B3
  8
PATTERN_FILL
  6
CONTINUOUS
 62
     7
 10
202.91674558493941
 20
-26.175000000000011
 30
0.0
 40
76.072170501295446
 50
134.5440020910039
 51
167.4923093328477
  0
ARC
  5
B4
  8
PATTERN_FILL
  6
CONTINUOUS
 62
     7
 10
202.91674558493941
 20
-26.175000000000011
 30
0.0
 40
74.120902196603168
 50
134.1791589004545
 51
167.1574873079999
  0
ARC
  5
B5
  8
PATTERN_FILL
  6
CONTINUOUS
 62
     7
 10
202.91674558493941
 20
-26.175000000000011
 30
0.0
 40
72.172301889981696
 50
133.9886156740539
 51
166.8045727745133
  0
ARC
  5
B6
  8
PATTERN_FILL
  6
CONTINUOUS
 62
     7
 10
202.91674558493941
 20
-26.175000000000011
 30
0.0
 40
70.22659167123868
 50
133.97781941505221
 51
166.43208762534789
  0
ARC
  5
B7
  8
PATTERN_FILL
  6
CONTINUOUS
 62
     7
 10
202.91674558493941
 20
-26.175000000000011
 30
0.0
 40
68.284018594537429
 50
134.5526395888154
 51
166.03839180356019
  0
ARC
  5
B8
  8
PATTERN_FILL
  6
CONTINUOUS
 62
     7
 10
77.083254415060523
 20
-26.175000000000011
 30
0.0
 40
54.80180945042612
 50
17.49537178821463
 51
29.67987384663585
  0
ARC
  5
B9
  8
PATTERN_FILL
  6
CONTINUOUS
 62
     7
 10
77.083254415060523
 20
-26.175000000000011
 30
0.0
 40
57.670085768537341
 50
16.599302652053659
 51
34.223719979929172
  0
ARC
  5
BA
  8
PATTERN_FILL
  6
CONTINUOUS
 62
     7
 10
77.083254415060523
 20
-26.175000000000011
 30
0.0
 40
60.551129354125941
 50
15.78832111539208
 51
37.946350108124221
  0
ARC
  5
BB
  8
PATTERN_FILL
  6
CONTINUOUS
 62
     7
 10
77.083254415060523
 20
-26.175000000000011
 30
0.0
 40
63.443200893159002
 50
15.0511404117168
 51
41.09684705660905
  0
ARC
  5
BC
  8
PATTERN_FILL
  6
CONTINUOUS
 62
     7
 10
77.083254415060523
 20
-26.175000000000011
 30
0.0
 40
66.344858226386819
 50
14.378338937336631
 51
43.820676152016397
  0
ARC
  5
BD
  8
PATTERN_FILL
  6
CONTINUOUS
 62
     7
 10
77.083254415060523
 20
-26.175000000000011
 30
0.0
 40
78.025906640794119
 50
12.18962583662694
 51
44.913934762897462
  0
ARC
  5
BE
  8
PATTERN_FILL
  6
CONTINUOUS
 62
     7
 10
77.083254415060523
 20
-26.175000000000011
 30
0.0
 40
79.981929768277553
 50
11.887109127722271
 51
44.18165102306903
  0
ARC
  5
BF
  8
PATTERN_FILL
  6
CONTINUOUS
 62
     7
 10
77.083254415060523
 20
-26.175000000000011
 30
0.0
 40
76.072170501295403
 50
12.507690667152231
 51
45.455997908996729
  0
ARC
  5
C0
  8
PATTERN_FILL
  6
CONTINUOUS
 62
     7
 10
77.083254415060523
 20
-26.175000000000011
 30
0.0
 40
74.120902196603097
 50
12.842512692000071
 51
45.820841099547053
  0
ARC
  5
C1
  8
PATTERN_FILL
  6
CONTINUOUS
 62
     7
 10
77.083254415060523
 20
-26.175000000000011
 30
0.0
 40
72.172301889981625
 50
13.19542722548672
 51
46.01138432594643
  0
ARC
  5
C2
  8
PATTERN_FILL
  6
CONTINUOUS
 62
     7
 10
77.083254415060523
 20
-26.175000000000011
 30
0.0
 40
70.226591671238651
 50
13.56791237465209
 51
46.022180584948039
  0
ARC
  5
C3
  8
PATTERN_FILL
  6
CONTINUOUS
 62
     7
 10
77.083254415060523
 20
-26.175000000000011
 30
0.0
 40
68.284018594537386
 50
13.96160819643981
 51
45.447360411234619
  0
ARC
  5
C4
  8
PATTERN_FILL
  6
CONTINUOUS
 62
     7
 10
202.91674558493941
 20
-26.175000000000011
 30
0.0
 40
81.940076103195366
 50
136.76889308700731
 51
162.76394687694901
  0
ARC
  5
C5
  8
PATTERN_FILL
  6
CONTINUOUS
 62
     7
 10
202.91674558493941
 20
-26.175000000000011
 30
0.0
 40
83.90019698509181
 50
137.96800343147319
 51
158.71312211482899
  0
ARC
  5
C6
  8
PATTERN_FILL
  6
CONTINUOUS
 62
     7
 10
202.91674558493941
 20
-26.175000000000011
 30
0.0
 40
85.862157185089217
 50
139.13747369897899
 51
155.45794275849519
  0
ARC
  5
C7
  8
PATTERN_FILL
  6
CONTINUOUS
 62
     7
 10
202.91674558493941
 20
-26.175000000000011
 30
0.0
 40
87.825833436504993
 50
140.46959911774519
 51
152.69790419454901
  0
ARC
  5
C8
  8
PATTERN_FILL
  6
CONTINUOUS
 62
     7
 10
202.91674558493941
 20
-26.175000000000011
 30
0.0
 40
89.791113152452183
 50
142.30985468586221
 51
150.28596747631121
  0
ARC
  5
C9
  8
PATTERN_FILL
  6
CONTINUOUS
 62
     7
 10
77.083254415060523
 20
-26.175000000000011
 30
0.0
 40
81.940076103195366
 50
17.236053122990089
 51
43.231106912992729
  0
ARC
  5
CA
  8
PATTERN_FILL
  6
CONTINUOUS
 62
     7
 10
77.083254415060523
 20
-26.175000000000011
 30
0.0
 40
83.900196985091739
 50
21.286877885256601
 51
42.031996568526978
  0
ARC
  5
CB
  8
PATTERN_FILL
  6
CONTINUOUS
 62
     7
 10
77.083254415060523
 20
-26.175000000000011
 30
0.0
 40
85.862157185089188
 50
24.542057241473181
 51
40.862526301020878
  0
ARC
  5
CC
  8
PATTERN_FILL
  6
CONTINUOUS
 62
     7
 10
77.083254415060523
 20
-26.175000000000011
 30
0.0
 40
87.825833436504936
 50
27.30209580542855
 51
39.530400882254739
  0
ARC
  5
CD
  8
PATTERN_FILL
  6
CONTINUOUS
 62
     7
 10
77.083254415060523
 20
-26.175000000000011
 30
0.0
 40
89.791113152452169
 50
29.714032523653049
 51
37.690145314138491
  0
ARC
  5
CE
  8
PATTERN_FILL
  6
CONTINUOUS
 62
     7
 10
77.083254415060523
 20
-26.175000000000011
 30
0.0
 40
91.757893303498591
 50
31.863319544097489
 51
34.566465494476468
  0
ARC
  5
CF
  8
PATTERN_FILL
  6
CONTINUOUS
 62
     7
 10
75.40000000000019
 20
-25.0
 30
0.0
 40
53.197673821324223
 50
16.714718426860021
 51
22.3065233786342
  0
LINE
  5
D0
  8
SPEC
  6
CONTINUOUS
 62
     7
 10
-247.5
 20
367.06362999999999
 30
0.0
 11
195.0
 21
367.06362999999999
 31
0.0
  0
LINE
  5
D1
  8
SPEC
  6
CONTINUOUS
 62
     7
 10
-247.5
 20
355.81362999999999
 30
0.0
 11
195.0
 21
355.81362999999999
 31
0.0
  0
LINE
  5
D2
  8
SPEC
  6
CONTINUOUS
 62
     7
 10
-247.5
 20
310.81362999999999
 30
0.0
 11
195.0
 21
310.81362999999999
 31
0.0
  0
LINE
  5
D3
  8
SPEC
  6
CONTINUOUS
 62
     7
 10
-247.5
 20
322.06362999999999
 30
0.0
 11
195.0
 21
322.06362999999999
 31
0.0
  0
LINE
  5
D4
  8
SPEC
  6
CONTINUOUS
 62
     7
 10
-247.5
 20
333.31362999999999
 30
0.0
 11
195.0
 21
333.31362999999999
 31
0.0
  0
LINE
  5
D5
  8
SPEC
  6
CONTINUOUS
 62
     7
 10
-247.5
 20
367.06362999999999
 30
0.0
 11
-247.5
 21
198.31362999999999
 31
0.0
  0
TEXT
  5
D6
  8
SPEC
 62
     7
 10
-243.75
 20
373.06377333333342
 30
0.0
 40
5.7009440104166673
  1
仕様
 41
0.7
 11
-243.75
 21
378.76471734375002
 31
0.0
 73
     3
  0
LINE
  5
D7
  8
SPEC
  6
CONTINUOUS
 62
     7
 10
-150.0
 20
367.06362999999999
 30
0.0
 11
-150.0
 21
198.31362999999999
 31
0.0
  0
LINE
  5
D8
  8
SPEC
  6
CONTINUOUS
 62
     7
 10
195.0
 20
367.06362999999999
 30
0.0
 11
195.0
 21
198.31362999999999
 31
0.0
  0
LINE
  5
D9
  8
SPEC
  6
CONTINUOUS
 62
     7
 10
-247.5
 20
344.56362999999999
 30
0.0
 11
195.0
 21
344.56362999999999
 31
0.0
  0
LINE
  5
DA
  8
SPEC
  6
CONTINUOUS
 62
     7
 10
-247.5
 20
299.56362999999999
 30
0.0
 11
195.0
 21
299.56362999999999
 31
0.0
  0
LINE
  5
DB
  8
SPEC
  6
CONTINUOUS
 62
     7
 10
-247.5
 20
288.31362999999999
 30
0.0
 11
195.0
 21
288.31362999999999
 31
0.0
  0
TEXT
  5
DC
  8
SPEC
 62
     7
 10
-147.21231250943441
 20
358.54058666603771
 30
0.0
 40
5.7009440104166673
  1
コンデンサー型 
 41
0.7
 11
-147.21231250943441
 21
364.24153067645437
 31
0.0
 73
     3
  0
TEXT
  5
DD
  8
SPEC
 62
     7
 10
-147.2184108054966
 20
347.10103456403419
 30
0.0
 40
5.7009440104166673
  1
カーディオイド(付属のアダプタ ーでハイパーカーディオイドに変更可能)
 41
0.7
 11
-147.2184108054966
 21
352.80197857445091
 31
0.0
 73
     3
  0
TEXT
  5
DE
  8
SPEC
 62
     7
 10
-147.1763294453707
 20
336.05993526380598
 30
0.0
 40
5.7009440104166673
  1
50Hz～20kHz
 41
0.7
 11
-147.1763294453707
 21
341.76087927422259
 31
0.0
 73
     3
  0
TEXT
  5
DF
  8
SPEC
 62
     7
 10
-245.90678076635859
 20
325.30588180205018
 30
0.0
 40
5.7009440104166673
  1
開回路感度
 41
0.7
 11
-245.90678076635859
 21
331.0068258124669
 31
0.0
 73
     3
  0
TEXT
  5
E0
  8
SPEC
 62
     7
 10
-245.18048307688639
 20
313.76581841231149
 30
0.0
 40
5.7009440104166673
  1
最大音圧レベル
 41
0.7
 11
-245.18048307688639
 21
319.4667624227281
 31
0.0
 73
     3
  0
TEXT
  5
E1
  8
SPEC
 62
     7
 10
-147.9966124514321
 20
302.64836207454101
 30
0.0
 40
5.7009440104166673
  1
21dB SPL(Aウェイト)
 41
0.7
 11
-147.9966124514321
 21
308.34930608495768
 31
0.0
 73
     3
  0
TEXT
  5
E2
  8
SPEC
 62
     7
 10
-245.58293940828841
 20
291.24561449448299
 30
0.0
 40
5.7009440104166673
  1
パッド
 41
0.7
 11
-245.58293940828841
 21
296.94655850489971
 31
0.0
 73
     3
  0
TEXT
  5
E3
  8
SPEC
 62
     7
 10
-148.15262436059899
 20
280.00928186423761
 30
0.0
 40
5.7009440104166673
  1
Flat/80Hz(12dB/oct)
 41
0.7
 11
-148.15262436059899
 21
285.71022587465421
 31
0.0
 73
     3
  0
TEXT
  5
E4
  8
SPEC
 62
     7
 10
-147.40926183710761
 20
269.02882213005643
 30
0.0
 40
5.7009440104166673
  1
200\U+03A9以下
 41
0.7
 11
-147.40926183710761
 21
274.72976614047298
 31
0.0
 73
     3
  0
TEXT
  5
E5
  8
SPEC
 62
     7
 10
-244.9984098467304
 20
358.47480726776502
 30
0.0
 40
5.7009440104166673
  1
形式
 41
0.7
 11
-244.9984098467304
 21
364.17575127818168
 31
0.0
 73
     3
  0
TEXT
  5
E6
  8
SPEC
 62
     7
 10
-244.83629396314529
 20
347.4415073057786
 30
0.0
 40
5.7009440104166673
  1
指向特性
 41
0.7
 11
-244.83629396314529
 21
353.14245131619521
 31
0.0
 73
     3
  0
TEXT
  5
E7
  8
SPEC
 62
     7
 10
-244.82240536206371
 20
336.24026257061468
 30
0.0
 40
5.7009440104166673
  1
周波数特性
 41
0.7
 11
-244.82240536206371
 21
341.94120658103139
 31
0.0
 73
     3
  0
TEXT
  5
E8
  8
SPEC
 62
     7
 10
-147.27613691839511
 20
325.16884085029238
 30
0.0
 40
5.7009440104166673
  1
-44dB re 1V/Pa
 41
0.7
 11
-147.27613691839511
 21
330.8697848607091
 31
0.0
 73
     3
  0
TEXT
  5
E9
  8
SPEC
 62
     7
 10
-147.27743928402401
 20
313.7183507091882
 30
0.0
 40
5.7009440104166673
  1
137dB SPL(パッドOFF、THD 1%%%)
 41
0.7
 11
-147.27743928402401
 21
319.41929471960492
 31
0.0
 73
     3
  0
TEXT
  5
EA
  8
SPEC
 62
     7
 10
-245.01721469826279
 20
302.59655166566603
 30
0.0
 40
5.7009440104166673
  1
等価雑音レベル
 41
0.7
 11
-245.01721469826279
 21
308.29749567608258
 31
0.0
 73
     3
  0
TEXT
  5
EB
  8
SPEC
 62
     7
 10
-147.02250048727089
 20
290.92271368691701
 30
0.0
 40
5.7009440104166673
  1
0/-10dB 
 41
0.7
 11
-147.02250048727089
 21
296.62365769733361
 31
0.0
 73
     3
  0
TEXT
  5
EC
  8
SPEC
 62
     7
 10
-245.1306608630556
 20
280.4183363843419
 30
0.0
 40
5.7009440104166673
  1
ローカットフィルター
 41
0.7
 11
-245.1306608630556
 21
286.1192803947585
 31
0.0
 73
     3
  0
LINE
  5
ED
  8
SPEC
  6
CONTINUOUS
 62
     7
 10
-247.5
 20
277.06362999999999
 30
0.0
 11
195.0
 21
277.06362999999999
 31
0.0
  0
LINE
  5
EE
  8
SPEC
  6
CONTINUOUS
 62
     7
 10
-247.5
 20
265.81362999999999
 30
0.0
 11
195.0
 21
265.81362999999999
 31
0.0
  0
LINE
  5
EF
  8
SPEC
  6
CONTINUOUS
 62
     7
 10
-247.5
 20
254.56362999999999
 30
0.0
 11
195.0
 21
254.56362999999999
 31
0.0
  0
LINE
  5
F0
  8
SPEC
  6
CONTINUOUS
 62
     7
 10
-247.5
 20
243.31362999999999
 30
0.0
 11
195.0
 21
243.31362999999999
 31
0.0
  0
TEXT
  5
F1
  8
SPEC
 62
     7
 10
-244.98529631315839
 20
268.88602029978119
 30
0.0
 40
5.7009440104166673
  1
インピーダンス
 41
0.7
 11
-244.98529631315839
 21
274.58696431019791
 31
0.0
 73
     3
  0
TEXT
  5
F2
  8
SPEC
 62
     7
 10
-244.98529631315839
 20
257.63602029978119
 30
0.0
 40
5.7009440104166673
  1
電源
 41
0.7
 11
-244.98529631315839
 21
263.3369643101978
 31
0.0
 73
     3
  0
TEXT
  5
F3
  8
SPEC
 62
     7
 10
-147.40926183710761
 20
246.5288221300564
 30
0.0
 40
5.7009440104166673
  1
XLR 3ピン  
 41
0.7
 11
-147.40926183710761
 21
252.229766140473
 31
0.0
 73
     3
  0
TEXT
  5
F4
  8
SPEC
 62
     7
 10
-244.98529631315839
 20
235.13602029978131
 30
0.0
 40
5.7009440104166673
  1
寸法(\U+03C6\U+00D7全長)
 41
0.7
 11
-244.98529631315839
 21
240.836964310198
 31
0.0
 73
     3
  0
TEXT
  5
F5
  8
SPEC
 62
     7
 10
-244.98529631315839
 20
223.88602029978131
 30
0.0
 40
5.7009440104166673
  1
質量
 41
0.7
 11
-244.98529631315839
 21
229.586964310198
 31
0.0
 73
     3
  0
TEXT
  5
F6
  8
SPEC
 62
     7
 10
-147.40926183710761
 20
201.5288221300564
 30
0.0
 40
5.7009440104166673
  1
プレゼンス・ブースター、マイクポーチ
 41
0.7
 11
-147.40926183710761
 21
207.229766140473
 31
0.0
 73
     3
  0
TEXT
  5
F7
  8
SPEC
 62
     7
 10
-147.40926183710761
 20
257.77882213005643
 30
0.0
 40
5.7009440104166673
  1
ファンタムDC9～52Vまたは単3形アルカリ乾電池\U+00D72または単3形ニッケル水素充電池\U+00D72
 41
0.7
 11
-147.40926183710761
 21
263.47976614047298
 31
0.0
 73
     3
  0
TEXT
  5
F8
  8
SPEC
 62
     7
 10
-244.98529631315839
 20
246.38602029978131
 30
0.0
 40
5.7009440104166673
  1
コネクター
 41
0.7
 11
-244.98529631315839
 21
252.086964310198
 31
0.0
 73
     3
  0
TEXT
  5
F9
  8
SPEC
 62
     7
 10
-147.40926183710761
 20
235.27882213005631
 30
0.0
 40
5.7009440104166673
  1
33.3\U+00D7230mm  
 41
0.7
 11
-147.40926183710761
 21
240.979766140473
 31
0.0
 73
     3
  0
TEXT
  5
FA
  8
SPEC
 62
     7
 10
-147.40926183710761
 20
224.0288221300564
 30
0.0
 40
5.7009440104166673
  1
286g
 41
0.7
 11
-147.40926183710761
 21
229.729766140473
 31
0.0
 73
     3
  0
TEXT
  5
FB
  8
SPEC
 62
     7
 10
-244.98529631315839
 20
212.63602029978131
 30
0.0
 40
5.7009440104166673
  1
付属品
 41
0.7
 11
-244.98529631315839
 21
218.336964310198
 31
0.0
 73
     3
  0
LINE
  5
FC
  8
SPEC
  6
CONTINUOUS
 62
     7
 10
-247.5
 20
232.06362999999999
 30
0.0
 11
195.0
 21
232.06362999999999
 31
0.0
  0
LINE
  5
FD
  8
SPEC
  6
CONTINUOUS
 62
     7
 10
-247.5
 20
220.81362999999999
 30
0.0
 11
195.0
 21
220.81362999999999
 31
0.0
  0
LINE
  5
FE
  8
SPEC
  6
CONTINUOUS
 62
     7
 10
-247.5
 20
198.31362999999999
 30
0.0
 11
195.0
 21
198.31362999999999
 31
0.0
  0
TEXT
  5
FF
  8
SPEC
 62
     7
 10
-147.40926183710761
 20
212.7788221300564
 30
0.0
 40
5.7009440104166673
  1
マイクホルダー(SA63)、ウインドスクリーン(W1001)、指向特性変換アダプタ ー、
 41
0.7
 11
-147.40926183710761
 21
218.479766140473
 31
0.0
 73
     3
  0
TEXT
  5
100
  8
DIMNSIONS
 62
     7
 10
-59.999999999999979
 20
-346.12790000000001
 30
0.0
 40
7.3297851562499989
  1
(単位：mm)
 41
0.7
 11
-59.999999999999979
 21
-338.79811484374989
 31
0.0
 73
     3
  0
LINE
  5
101
  8
DIMNSIONS
  6
CONTINUOUS
 62
     7
 10
-118.65000000000001
 20
-200.0
 30
0.0
 11
-166.0
 21
-200.0
 31
0.0
  0
LINE
  5
102
  8
DIMNSIONS
  6
CONTINUOUS
 62
     7
 10
-108.23209324255819
 20
30.00000000000011
 30
0.0
 11
-166.0
 21
30.00000000000011
 31
0.0
  0
LINE
  5
103
  8
DIMNSIONS
  6
CONTINUOUS
 62
     7
 10
-160.0
 20
-200.0
 30
0.0
 11
-160.0
 21
30.00000000000011
 31
0.0
  0
LINE
  5
104
  8
DIMNSIONS
  6
CONTINUOUS
 62
     7
 10
-160.0
 20
-200.0
 30
0.0
 11
-162.01011938545071
 21
-192.49813232421869
 31
0.0
  0
LINE
  5
105
  8
DIMNSIONS
  6
CONTINUOUS
 62
     7
 10
-160.0
 20
-200.0
 30
0.0
 11
-157.98988061454921
 21
-192.49813232421869
 31
0.0
  0
LINE
  5
106
  8
DIMNSIONS
  6
CONTINUOUS
 62
     7
 10
-160.0
 20
30.00000000000011
 30
0.0
 11
-157.98988061454921
 21
22.498132324218869
 31
0.0
  0
LINE
  5
107
  8
DIMNSIONS
  6
CONTINUOUS
 62
     7
 10
-160.0
 20
30.00000000000011
 30
0.0
 11
-162.01011938545071
 21
22.498132324218869
 31
0.0
  0
TEXT
  5
108
  8
DIMNSIONS
 62
     7
 10
-162.4816666666666
 20
-92.937499999999929
 30
0.0
 40
8.1442057291666661
  1
230
 50
90.0
 41
0.7
 11
-170.62587239583331
 21
-92.937499999999929
 31
0.0
 73
     3
  0
LINE
  5
109
  8
DIMNSIONS
  6
CONTINUOUS
 62
     7
 10
-86.146362599275022
 20
-250.76424173285
 30
0.0
 11
-70.000000000000014
 21
-240.0
 31
0.0
  0
LINE
  5
10A
  8
DIMNSIONS
  6
CONTINUOUS
 62
     7
 10
-86.146362599275022
 20
-250.76424173285
 30
0.0
 11
-80.949556457333017
 21
-244.99260379446801
 31
0.0
  0
LINE
  5
10B
  8
DIMNSIONS
  6
CONTINUOUS
 62
     7
 10
-86.146362599275022
 20
-250.76424173285
 30
0.0
 11
-78.759977492619242
 21
-248.36425972773611
 31
0.0
  0
LINE
  5
10C
  8
DIMNSIONS
  6
CONTINUOUS
 62
     7
 10
-70.000000000000014
 20
-240.0
 30
0.0
 11
-32.250000000000021
 21
-240.0
 31
0.0
  0
TEXT
  5
10D
  8
DIMNSIONS
 62
     7
 10
-64.000000000000014
 20
-237.51833333333329
 30
0.0
 40
8.1442057291666661
  1
\U+03C633.3
 41
0.7
 11
-64.000000000000014
 21
-229.3741276041666
 31
0.0
 73
     3
  0
TEXT
  5
10E
  8
DATA
 62
     7
 10
-262.5
 20
-359.30753666666669
 30
0.0
 40
5.7009440104166673
  1
※仕様及び外観は予告なく変更されることがあります。
 41
0.7
 11
-262.5
 21
-353.60659265625009
 31
0.0
 73
     3
  0
TEXT
  5
10F
  8
DATA
 62
     7
 10
-262.5
 20
-366.71586999999988
 30
0.0
 40
5.7009440104166673
  1
　また、同一商品でも若干の個体差があることがあります。ご了承ください。
 41
0.7
 11
-262.5
 21
-361.01492598958328
 31
0.0
 73
     3
  0
TEXT
  5
110
  8
DATA
 62
     7
 10
149.99999999999989
 20
-349.54369999999989
 30
0.0
 40
7.3297851562499989
  1
C1000 S
 41
0.7
 11
149.99999999999989
 21
-342.21391484374988
 31
0.0
 73
     3
  0
TEXT
  5
111
  8
DATA
 62
     7
 10
149.99999999999989
 20
-327.7937
 30
0.0
 40
7.3297851562499989
  1
AKG
 41
0.7
 11
149.99999999999989
 21
-320.46391484374988
 31
0.0
 73
     3
  0
TEXT
  5
112
  8
DATA
 62
     7
 10
142.49999999999989
 20
-338.2245650000001
 30
0.0
 40
4.8865234374999993
  1
スティック型マイクロホン
 41
0.7
 11
142.49999999999989
 21
-333.33804156250011
 31
0.0
 73
     3
  0
TEXT
  5
113
  8
DATA
 62
     7
 10
-105.878306712963
 20
-130.00855780591081
 30
0.0
 40
4.3435763888888879
  1
A K G
 41
0.7
 72
     1
 11
-100.0
 21
-130.00855780591081
 31
0.0
  0
TEXT
  5
114
  8
DATA
 62
     7
 10
-106.4293979673033
 20
-193.9387630388502
 30
0.0
 40
3.8006293402777769
  1
C1000S
 41
0.7
 72
     1
 11
-100.0
 21
-193.9387630388502
 31
0.0
  0
LINE
  5
115
  8
DATA
  6
CONTINUOUS
 62
     7
 10
-116.65000000000001
 20
-9.6999999999999993
 30
0.0
 11
-116.65000000000001
 21
-15.999999999999989
 31
0.0
  0
LINE
  5
116
  8
DATA
  6
CONTINUOUS
 62
     7
 10
-116.65000000000001
 20
-17.649999999999991
 30
0.0
 11
-116.65000000000001
 21
-19.350000000000001
 31
0.0
  0
LINE
  5
117
  8
DATA
  6
CONTINUOUS
 62
     7
 10
-116.65000000000001
 20
-21.0
 30
0.0
 11
-116.65000000000001
 21
-196.0
 31
0.0
  0
LINE
  5
118
  8
DATA
  6
CONTINUOUS
 62
     7
 10
-112.65000000000001
 20
-200.0
 30
0.0
 11
-87.349999999999966
 21
-200.0
 31
0.0
  0
INSERT
  5
119
  8
DATA
 62
     7
  2
CALLOUT
 10
40.0
 20
69.847028308643047
 30
0.0
 50
240.0
  0
LINE
  5
11A
  8
DATA
  6
CONTINUOUS
 62
     7
 10
-83.349999999999994
 20
-196.0
 30
0.0
 11
-83.349999999999994
 21
-21.0
 31
0.0
  0
LINE
  5
11B
  8
DATA
  6
CONTINUOUS
 62
     7
 10
-83.349999999999994
 20
-19.349999999999991
 30
0.0
 11
-83.349999999999994
 21
-17.649999999999999
 31
0.0
  0
LINE
  5
11C
  8
DATA
  6
CONTINUOUS
 62
     7
 10
-83.349999999999994
 20
-15.999999999999989
 30
0.0
 11
-83.349999999999994
 21
-9.6999999999999993
 31
0.0
  0
LINE
  5
11D
  8
DATA
  6
CONTINUOUS
 62
     7
 10
-116.65000000000001
 20
-21.0
 30
0.0
 11
-83.349999999999994
 21
-21.0
 31
0.0
  0
LINE
  5
11E
  8
DATA
  6
CONTINUOUS
 62
     7
 10
-116.65000000000001
 20
-15.999999999999989
 30
0.0
 11
-83.349999999999994
 21
-15.999999999999989
 31
0.0
  0
LINE
  5
11F
  8
DATA
  6
CONTINUOUS
 62
     7
 10
-116.65000000000001
 20
-17.649999999999991
 30
0.0
 11
-83.349999999999994
 21
-17.649999999999991
 31
0.0
  0
LINE
  5
120
  8
DATA
  6
CONTINUOUS
 62
     7
 10
-116.65000000000001
 20
-19.350000000000001
 30
0.0
 11
-83.349999999999994
 21
-19.350000000000001
 31
0.0
  0
LINE
  5
121
  8
DATA
  6
CONTINUOUS
 62
     7
 10
-85.34999999999998
 20
-15.999999999999989
 30
0.0
 11
-85.34999999999998
 21
-17.649999999999991
 31
0.0
  0
LINE
  5
122
  8
DATA
  6
CONTINUOUS
 62
     7
 10
-85.34999999999998
 20
-19.350000000000001
 30
0.0
 11
-85.34999999999998
 21
-21.0
 31
0.0
  0
LINE
  5
123
  8
DATA
  6
CONTINUOUS
 62
     7
 10
-114.65000000000001
 20
-15.999999999999989
 30
0.0
 11
-114.65000000000001
 21
-17.649999999999991
 31
0.0
  0
LINE
  5
124
  8
DATA
  6
CONTINUOUS
 62
     7
 10
-114.65000000000001
 20
-19.350000000000001
 30
0.0
 11
-114.65000000000001
 21
-21.0
 31
0.0
  0
LINE
  5
125
  8
DATA
  6
CONTINUOUS
 62
     7
 10
-93.349999999999994
 20
-15.999999999999989
 30
0.0
 11
-93.349999999999994
 21
-17.649999999999991
 31
0.0
  0
LINE
  5
126
  8
DATA
  6
CONTINUOUS
 62
     7
 10
-93.349999999999994
 20
-19.350000000000001
 30
0.0
 11
-93.349999999999994
 21
-21.0
 31
0.0
  0
LINE
  5
127
  8
DATA
  6
CONTINUOUS
 62
     7
 10
-104.34999999999999
 20
-15.999999999999989
 30
0.0
 11
-104.34999999999999
 21
-17.649999999999991
 31
0.0
  0
LINE
  5
128
  8
DATA
  6
CONTINUOUS
 62
     7
 10
-104.34999999999999
 20
-19.350000000000001
 30
0.0
 11
-104.34999999999999
 21
-21.0
 31
0.0
  0
LINE
  5
129
  8
DATA
  6
CONTINUOUS
 62
     7
 10
-116.65000000000001
 20
-9.6999999999999993
 30
0.0
 11
-83.349999999999994
 21
-9.6999999999999993
 31
0.0
  0
LINE
  5
12A
  8
DATA
  6
CONTINUOUS
 62
     7
 10
-85.000000000000028
 20
23.300000000000001
 30
0.0
 11
-84.549999999999983
 21
-9.6999999999999993
 31
0.0
  0
LINE
  5
12B
  8
DATA
  6
CONTINUOUS
 62
     7
 10
-115.0
 20
23.300000000000001
 30
0.0
 11
-115.4499999999999
 21
-9.6999999999999993
 31
0.0
  0
ARC
  5
12C
  8
DATA
  6
CONTINUOUS
 62
     7
 10
-101.7510504096151
 20
13.58633257973896
 30
0.0
 40
16.42832919076071
 50
92.420841999249134
 51
143.7524310276699
  0
ARC
  5
12D
  8
DATA
  6
CONTINUOUS
 62
     7
 10
-98.248949590384925
 20
13.58633257973896
 30
0.0
 40
16.428329190760699
 50
36.247568972330129
 51
87.579158000748507
  0
LINE
  5
12E
  8
DATA
  6
CONTINUOUS
 62
     7
 10
-110.0
 20
-93.400000000000006
 30
0.0
 11
-90.000000000000057
 21
-93.400000000000006
 31
0.0
  0
LINE
  5
12F
  8
DATA
  6
CONTINUOUS
 62
     7
 10
-110.0
 20
-93.400000000000006
 30
0.0
 11
-110.0
 21
-197.0
 31
0.0
  0
LINE
  5
130
  8
DATA
  6
CONTINUOUS
 62
     7
 10
-90.000000000000057
 20
-93.400000000000006
 30
0.0
 11
-90.000000000000057
 21
-197.0
 31
0.0
  0
ARC
  5
131
  8
DATA
  6
CONTINUOUS
 62
     7
 10
-100.0
 20
-182.40000000000001
 30
0.0
 40
17.696327302578911
 50
235.5915277479713
 51
264.01908050153429
  0
ARC
  5
132
  8
DATA
  6
CONTINUOUS
 62
     7
 10
-100.0
 20
-182.40000000000001
 30
0.0
 40
17.696327302578919
 50
275.98091949846571
 51
304.40847225202862
  0
ARC
  5
133
  8
DATA
  6
CONTINUOUS
 62
     7
 10
-100.0
 20
-112.90000000000001
 30
0.0
 40
21.914607000811131
 50
62.850318302216849
 51
117.14968169778309
  0
LINE
  5
134
  8
DATA
  6
CONTINUOUS
 62
     7
 10
-116.65000000000001
 20
-88.985392999188846
 30
0.0
 11
-83.349999999999994
 21
-88.985392999188846
 31
0.0
  0
LINE
  5
135
  8
DATA
  6
CONTINUOUS
 62
     7
 10
-105.0
 20
-115.0
 30
0.0
 11
-95.000000000000057
 21
-115.0
 31
0.0
  0
LINE
  5
136
  8
DATA
  6
CONTINUOUS
 62
     7
 10
-95.000000000000057
 20
-95.0
 30
0.0
 11
-105.0
 21
-95.0
 31
0.0
  0
LINE
  5
137
  8
DATA
  6
CONTINUOUS
 62
     7
 10
-106.0
 20
-96.0
 30
0.0
 11
-106.0
 21
-114.0
 31
0.0
  0
LINE
  5
138
  8
DATA
  6
CONTINUOUS
 62
     7
 10
-94.000000000000028
 20
-96.0
 30
0.0
 11
-94.000000000000028
 21
-114.0
 31
0.0
  0
CIRCLE
  5
139
  8
DATA
  6
CONTINUOUS
 62
     7
 10
-100.0
 20
100.0
 30
0.0
 40
16.150000000000031
  0
CIRCLE
  5
13A
  8
DATA
  6
CONTINUOUS
 62
     7
 10
-100.0
 20
100.0
 30
0.0
 40
16.650000000000031
  0
LINE
  5
13B
  8
DATA
  6
CONTINUOUS
 62
     7
 10
123.3499999999997
 20
-9.6999999999999993
 30
0.0
 11
123.3499999999997
 21
-15.999999999999989
 31
0.0
  0
LINE
  5
13C
  8
DATA
  6
CONTINUOUS
 62
     7
 10
123.3499999999997
 20
-17.649999999999999
 30
0.0
 11
123.3499999999997
 21
-19.349999999999991
 31
0.0
  0
LINE
  5
13D
  8
DATA
  6
CONTINUOUS
 62
     7
 10
123.3499999999997
 20
-21.0
 30
0.0
 11
123.3499999999997
 21
-90.985392999188875
 31
0.0
  0
LINE
  5
13E
  8
DATA
  6
CONTINUOUS
 62
     7
 10
126.64999999999969
 20
-200.0
 30
0.0
 11
152.64999999999961
 21
-200.0
 31
0.0
  0
LINE
  5
13F
  8
DATA
  6
CONTINUOUS
 62
     7
 10
137.55503185962539
 20
30.0
 30
0.0
 11
142.44496814037461
 21
30.0
 31
0.0
  0
LINE
  5
140
  8
DATA
  6
CONTINUOUS
 62
     7
 10
156.64999999999961
 20
-196.0
 30
0.0
 11
156.64999999999961
 21
-21.0
 31
0.0
  0
LINE
  5
141
  8
DATA
  6
CONTINUOUS
 62
     7
 10
156.64999999999961
 20
-19.349999999999991
 30
0.0
 11
156.64999999999961
 21
-17.649999999999999
 31
0.0
  0
LINE
  5
142
  8
DATA
  6
CONTINUOUS
 62
     7
 10
156.64999999999961
 20
-15.999999999999989
 30
0.0
 11
156.64999999999961
 21
-9.6999999999999993
 31
0.0
  0
LINE
  5
143
  8
DATA
  6
CONTINUOUS
 62
     7
 10
123.3499999999997
 20
-21.0
 30
0.0
 11
156.64999999999961
 21
-21.0
 31
0.0
  0
LINE
  5
144
  8
DATA
  6
CONTINUOUS
 62
     7
 10
123.3499999999997
 20
-15.999999999999989
 30
0.0
 11
156.64999999999961
 21
-15.999999999999989
 31
0.0
  0
LINE
  5
145
  8
DATA
  6
CONTINUOUS
 62
     7
 10
123.3499999999997
 20
-17.649999999999999
 30
0.0
 11
156.64999999999961
 21
-17.649999999999999
 31
0.0
  0
LINE
  5
146
  8
DATA
  6
CONTINUOUS
 62
     7
 10
123.3499999999997
 20
-19.349999999999991
 30
0.0
 11
156.64999999999961
 21
-19.349999999999991
 31
0.0
  0
LINE
  5
147
  8
DATA
  6
CONTINUOUS
 62
     7
 10
154.64999999999961
 20
-15.999999999999989
 30
0.0
 11
154.64999999999961
 21
-17.649999999999999
 31
0.0
  0
LINE
  5
148
  8
DATA
  6
CONTINUOUS
 62
     7
 10
154.64999999999961
 20
-19.349999999999991
 30
0.0
 11
154.64999999999961
 21
-21.0
 31
0.0
  0
LINE
  5
149
  8
DATA
  6
CONTINUOUS
 62
     7
 10
125.3499999999997
 20
-15.999999999999989
 30
0.0
 11
125.3499999999997
 21
-17.649999999999999
 31
0.0
  0
LINE
  5
14A
  8
DATA
  6
CONTINUOUS
 62
     7
 10
125.3499999999997
 20
-19.349999999999991
 30
0.0
 11
125.3499999999997
 21
-21.0
 31
0.0
  0
LINE
  5
14B
  8
DATA
  6
CONTINUOUS
 62
     7
 10
146.64999999999961
 20
-15.999999999999989
 30
0.0
 11
146.64999999999961
 21
-17.649999999999999
 31
0.0
  0
LINE
  5
14C
  8
DATA
  6
CONTINUOUS
 62
     7
 10
146.64999999999961
 20
-19.349999999999991
 30
0.0
 11
146.64999999999961
 21
-21.0
 31
0.0
  0
LINE
  5
14D
  8
DATA
  6
CONTINUOUS
 62
     7
 10
135.64999999999961
 20
-15.999999999999989
 30
0.0
 11
135.64999999999961
 21
-17.649999999999999
 31
0.0
  0
LINE
  5
14E
  8
DATA
  6
CONTINUOUS
 62
     7
 10
135.64999999999961
 20
-19.349999999999991
 30
0.0
 11
135.64999999999961
 21
-21.0
 31
0.0
  0
LINE
  5
14F
  8
DATA
  6
CONTINUOUS
 62
     7
 10
123.3499999999997
 20
-9.6999999999999993
 30
0.0
 11
156.64999999999961
 21
-9.6999999999999993
 31
0.0
  0
LINE
  5
150
  8
DATA
  6
CONTINUOUS
 62
     7
 10
154.9999999999996
 20
23.300000000000001
 30
0.0
 11
155.4499999999997
 21
-9.6999999999999993
 31
0.0
  0
ARC
  5
151
  8
DATA
  6
CONTINUOUS
 62
     7
 10
138.24894959038451
 20
13.58633257973896
 30
0.0
 40
16.42832919076071
 50
92.420841999249134
 51
143.7524310276699
  0
ARC
  5
152
  8
DATA
  6
CONTINUOUS
 62
     7
 10
141.75105040961469
 20
13.58633257973896
 30
0.0
 40
16.428329190760699
 50
36.247568972330129
 51
87.579158000748507
  0
LINE
  5
153
  8
DATA
  6
CONTINUOUS
 62
     7
 10
123.3499999999997
 20
-88.985392999188846
 30
0.0
 11
156.64999999999961
 21
-88.985392999188846
 31
0.0
  0
LINE
  5
154
  8
DATA
  6
CONTINUOUS
 62
     7
 10
-105.5
 20
-113.5
 30
0.0
 11
-105.5
 21
-96.5
 31
0.0
  0
ARC
  5
155
  8
DATA
  6
CONTINUOUS
 62
     7
 10
-104.5
 20
-113.5
 30
0.0
 40
1.0
 50
180.0
 51
270.0
  0
LINE
  5
156
  8
DATA
  6
CONTINUOUS
 62
     7
 10
-95.500000000000043
 20
-114.5
 30
0.0
 11
-104.5
 21
-114.5
 31
0.0
  0
ARC
  5
157
  8
DATA
  6
CONTINUOUS
 62
     7
 10
-95.500000000000043
 20
-113.5
 30
0.0
 40
1.0
 50
270.0
 51
0.0
  0
LINE
  5
158
  8
DATA
  6
CONTINUOUS
 62
     7
 10
-94.500000000000043
 20
-96.5
 30
0.0
 11
-94.500000000000043
 21
-113.5
 31
0.0
  0
ARC
  5
159
  8
DATA
  6
CONTINUOUS
 62
     7
 10
-95.500000000000043
 20
-96.5
 30
0.0
 40
1.0
 50
0.0
 51
90.0
  0
LINE
  5
15A
  8
DATA
  6
CONTINUOUS
 62
     7
 10
-104.5
 20
-95.5
 30
0.0
 11
-95.500000000000043
 21
-95.5
 31
0.0
  0
ARC
  5
15B
  8
DATA
  6
CONTINUOUS
 62
     7
 10
-104.5
 20
-96.5
 30
0.0
 40
1.0
 50
90.0
 51
180.0
  0
ARC
  5
15C
  8
DATA
  6
CONTINUOUS
 62
     7
 10
-105.0
 20
-96.0
 30
0.0
 40
1.0
 50
90.0
 51
180.0
  0
ARC
  5
15D
  8
DATA
  6
CONTINUOUS
 62
     7
 10
-95.000000000000057
 20
-96.0
 30
0.0
 40
1.0
 50
0.0
 51
90.0
  0
ARC
  5
15E
  8
DATA
  6
CONTINUOUS
 62
     7
 10
-95.000000000000057
 20
-114.0
 30
0.0
 40
1.0
 50
270.0
 51
0.0
  0
ARC
  5
15F
  8
DATA
  6
CONTINUOUS
 62
     7
 10
-105.0
 20
-114.0
 30
0.0
 40
1.0
 50
180.0
 51
270.0
  0
LINE
  5
160
  8
DATA
  6
CONTINUOUS
 62
     7
 10
-105.5
 20
-98.500000000000014
 30
0.0
 11
-94.500000000000043
 21
-98.500000000000014
 31
0.0
  0
LINE
  5
161
  8
DATA
  6
CONTINUOUS
 62
     7
 10
-105.5
 20
-103.5
 30
0.0
 11
-94.500000000000043
 21
-103.5
 31
0.0
  0
LINE
  5
162
  8
DATA
  6
CONTINUOUS
 62
     7
 10
-105.5
 20
-104.5
 30
0.0
 11
-94.500000000000043
 21
-104.5
 31
0.0
  0
LINE
  5
163
  8
DATA
  6
CONTINUOUS
 62
     7
 10
-105.5
 20
-107.5
 30
0.0
 11
-94.500000000000043
 21
-107.5
 31
0.0
  0
LINE
  5
164
  8
DATA
  6
CONTINUOUS
 62
     7
 10
-105.5
 20
-108.5
 30
0.0
 11
-94.500000000000043
 21
-108.5
 31
0.0
  0
LINE
  5
165
  8
DATA
  6
CONTINUOUS
 62
     7
 10
-104.5
 20
-113.5
 30
0.0
 11
-95.500000000000043
 21
-113.5
 31
0.0
  0
ARC
  5
166
  8
DATA
  6
CONTINUOUS
 62
     7
 10
-104.5
 20
-112.5
 30
0.0
 40
1.0
 50
180.0
 51
270.0
  0
ARC
  5
167
  8
DATA
  6
CONTINUOUS
 62
     7
 10
-95.500000000000043
 20
-112.5
 30
0.0
 40
1.0
 50
270.0
 51
0.0
  0
TEXT
  5
168
  8
DATA
 62
     7
 10
-102.2170337818287
 20
-102.9003146701389
 30
0.0
 40
3.8006293402777769
  1
ON
 41
0.7
 72
     1
 11
-100.0
 21
-101.0
 31
0.0
 73
     2
  0
TEXT
  5
169
  8
DATA
 62
     7
 10
-103.5472540509259
 20
-112.9003146701389
 30
0.0
 40
3.8006293402777769
  1
OFF
 41
0.7
 72
     1
 11
-100.0
 21
-111.0
 31
0.0
 73
     2
  0
LINE
  5
16A
  8
DATA
  6
CONTINUOUS
 62
     7
 10
126.64999999999969
 20
-200.0
 30
0.0
 11
126.64999999999969
 21
-93.400000000000006
 31
0.0
  0
LINE
  5
16B
  8
DATA
  6
CONTINUOUS
 62
     7
 10
123.3499999999997
 20
-90.985392999188875
 30
0.0
 11
126.64999999999969
 21
-93.400000000000006
 31
0.0
  0
ARC
  5
16C
  8
DATA
  6
CONTINUOUS
 62
     7
 10
152.64999999999961
 20
-196.0
 30
0.0
 40
4.0
 50
270.0
 51
0.0
  0
ARC
  5
16D
  8
DATA
  6
CONTINUOUS
 62
     7
 10
-112.65000000000001
 20
-196.0
 30
0.0
 40
4.0
 50
180.0
 51
270.0
  0
ARC
  5
16E
  8
DATA
  6
CONTINUOUS
 62
     7
 10
-87.349999999999966
 20
-196.0
 30
0.0
 40
4.0
 50
270.0
 51
0.0
  0
LINE
  5
16F
  8
DATA
  6
CONTINUOUS
 62
     7
 10
3.3500000000000218
 20
-9.6999999999999993
 30
0.0
 11
3.3500000000000218
 21
-15.999999999999989
 31
0.0
  0
LINE
  5
170
  8
DATA
  6
CONTINUOUS
 62
     7
 10
3.3500000000000218
 20
-17.649999999999991
 30
0.0
 11
3.3500000000000218
 21
-19.350000000000001
 31
0.0
  0
LINE
  5
171
  8
DATA
  6
CONTINUOUS
 62
     7
 10
3.3500000000000218
 20
-21.0
 30
0.0
 11
3.3500000000000218
 21
-196.0
 31
0.0
  0
LINE
  5
172
  8
DATA
  6
CONTINUOUS
 62
     7
 10
7.3500000000000218
 20
-200.0
 30
0.0
 11
32.649999999999977
 21
-200.0
 31
0.0
  0
LINE
  5
173
  8
DATA
  6
CONTINUOUS
 62
     7
 10
36.649999999999977
 20
-196.0
 30
0.0
 11
36.649999999999977
 21
-21.0
 31
0.0
  0
LINE
  5
174
  8
DATA
  6
CONTINUOUS
 62
     7
 10
36.649999999999977
 20
-19.349999999999991
 30
0.0
 11
36.649999999999977
 21
-17.649999999999999
 31
0.0
  0
LINE
  5
175
  8
DATA
  6
CONTINUOUS
 62
     7
 10
36.649999999999977
 20
-15.999999999999989
 30
0.0
 11
36.649999999999977
 21
-9.6999999999999993
 31
0.0
  0
LINE
  5
176
  8
DATA
  6
CONTINUOUS
 62
     7
 10
3.3500000000000218
 20
-21.0
 30
0.0
 11
36.649999999999977
 21
-21.0
 31
0.0
  0
LINE
  5
177
  8
DATA
  6
CONTINUOUS
 62
     7
 10
3.3500000000000218
 20
-15.999999999999989
 30
0.0
 11
36.649999999999977
 21
-15.999999999999989
 31
0.0
  0
LINE
  5
178
  8
DATA
  6
CONTINUOUS
 62
     7
 10
3.3500000000000218
 20
-17.649999999999991
 30
0.0
 11
36.649999999999977
 21
-17.649999999999991
 31
0.0
  0
LINE
  5
179
  8
DATA
  6
CONTINUOUS
 62
     7
 10
3.3500000000000218
 20
-19.350000000000001
 30
0.0
 11
36.649999999999977
 21
-19.350000000000001
 31
0.0
  0
LINE
  5
17A
  8
DATA
  6
CONTINUOUS
 62
     7
 10
34.649999999999977
 20
-15.999999999999989
 30
0.0
 11
34.649999999999977
 21
-17.649999999999991
 31
0.0
  0
LINE
  5
17B
  8
DATA
  6
CONTINUOUS
 62
     7
 10
34.649999999999977
 20
-19.350000000000001
 30
0.0
 11
34.649999999999977
 21
-21.0
 31
0.0
  0
LINE
  5
17C
  8
DATA
  6
CONTINUOUS
 62
     7
 10
5.3500000000000227
 20
-15.999999999999989
 30
0.0
 11
5.3500000000000227
 21
-17.649999999999991
 31
0.0
  0
LINE
  5
17D
  8
DATA
  6
CONTINUOUS
 62
     7
 10
5.3500000000000227
 20
-19.350000000000001
 30
0.0
 11
5.3500000000000227
 21
-21.0
 31
0.0
  0
LINE
  5
17E
  8
DATA
  6
CONTINUOUS
 62
     7
 10
26.649999999999981
 20
-15.999999999999989
 30
0.0
 11
26.649999999999981
 21
-17.649999999999991
 31
0.0
  0
LINE
  5
17F
  8
DATA
  6
CONTINUOUS
 62
     7
 10
26.649999999999981
 20
-19.350000000000001
 30
0.0
 11
26.649999999999981
 21
-21.0
 31
0.0
  0
LINE
  5
180
  8
DATA
  6
CONTINUOUS
 62
     7
 10
15.64999999999997
 20
-15.999999999999989
 30
0.0
 11
15.64999999999997
 21
-17.649999999999991
 31
0.0
  0
LINE
  5
181
  8
DATA
  6
CONTINUOUS
 62
     7
 10
15.64999999999997
 20
-19.350000000000001
 30
0.0
 11
15.64999999999997
 21
-21.0
 31
0.0
  0
LINE
  5
182
  8
DATA
  6
CONTINUOUS
 62
     7
 10
3.3500000000000218
 20
-9.6999999999999993
 30
0.0
 11
36.649999999999977
 21
-9.6999999999999993
 31
0.0
  0
LINE
  5
183
  8
DATA
  6
CONTINUOUS
 62
     7
 10
35.0
 20
23.300000000000001
 30
0.0
 11
35.450000000000053
 21
-9.6999999999999993
 31
0.0
  0
LINE
  5
184
  8
DATA
  6
CONTINUOUS
 62
     7
 10
5.0
 20
23.300000000000001
 30
0.0
 11
4.5500000000000682
 21
-9.6999999999999993
 31
0.0
  0
ARC
  5
185
  8
DATA
  6
CONTINUOUS
 62
     7
 10
18.248949590384878
 20
13.58633257973896
 30
0.0
 40
16.42832919076071
 50
92.420841999249134
 51
143.7524310276699
  0
ARC
  5
186
  8
DATA
  6
CONTINUOUS
 62
     7
 10
21.751050409615122
 20
13.58633257973896
 30
0.0
 40
16.428329190760699
 50
36.247568972330129
 51
87.579158000748507
  0
LINE
  5
187
  8
DATA
  6
CONTINUOUS
 62
     7
 10
3.3500000000000218
 20
-88.985392999188846
 30
0.0
 11
36.649999999999977
 21
-88.985392999188846
 31
0.0
  0
ARC
  5
188
  8
DATA
  6
CONTINUOUS
 62
     7
 10
7.3500000000000218
 20
-196.0
 30
0.0
 40
4.0
 50
180.0
 51
270.0
  0
ARC
  5
189
  8
DATA
  6
CONTINUOUS
 62
     7
 10
32.649999999999977
 20
-196.0
 30
0.0
 40
4.0
 50
270.0
 51
0.0
  0
CIRCLE
  5
18A
  8
DATA
  6
CONTINUOUS
 62
     7
 10
20.0
 20
-187.5
 30
0.0
 40
2.5
  0
LINE
  5
18B
  8
DATA
  6
CONTINUOUS
 62
     7
 10
-105.0
 20
-98.0
 30
0.0
 11
-95.000000000000057
 21
-98.0
 31
0.0
  0
LINE
  5
18C
  8
DATA
  6
CONTINUOUS
 62
     7
 10
-104.0
 20
-96.5
 30
0.0
 11
-96.000000000000043
 21
-96.5
 31
0.0
  0
LINE
  5
18D
  8
DATA
  6
CONTINUOUS
 62
     7
 10
-95.000000000000057
 20
-97.5
 30
0.0
 11
-95.000000000000057
 21
-98.0
 31
0.0
  0
LINE
  5
18E
  8
DATA
  6
CONTINUOUS
 62
     7
 10
-105.0
 20
-97.5
 30
0.0
 11
-105.0
 21
-98.0
 31
0.0
  0
ARC
  5
18F
  8
DATA
  6
CONTINUOUS
 62
     7
 10
-104.0
 20
-97.5
 30
0.0
 40
1.0
 50
90.0
 51
180.0
  0
ARC
  5
190
  8
DATA
  6
CONTINUOUS
 62
     7
 10
-96.000000000000043
 20
-97.5
 30
0.0
 40
1.0
 50
0.0
 51
90.0
  0
LINE
  5
191
  8
DATA
  6
CONTINUOUS
 62
     7
 10
17.763932022500281
 20
-187.25
 30
0.0
 11
19.25
 21
-187.25
 31
0.0
  0
LINE
  5
192
  8
DATA
  6
CONTINUOUS
 62
     7
 10
20.75
 20
-187.25
 30
0.0
 11
22.236067977499829
 21
-187.25
 31
0.0
  0
LINE
  5
193
  8
DATA
  6
CONTINUOUS
 62
     7
 10
20.25
 20
-185.2639320225002
 30
0.0
 11
20.25
 21
-186.75
 31
0.0
  0
LINE
  5
194
  8
DATA
  6
CONTINUOUS
 62
     7
 10
20.25
 20
-188.25
 30
0.0
 11
20.25
 21
-189.7360679774998
 31
0.0
  0
LINE
  5
195
  8
DATA
  6
CONTINUOUS
 62
     7
 10
19.75
 20
-185.2639320225002
 30
0.0
 11
19.75
 21
-186.75
 31
0.0
  0
LINE
  5
196
  8
DATA
  6
CONTINUOUS
 62
     7
 10
19.75
 20
-188.25
 30
0.0
 11
19.75
 21
-189.7360679774998
 31
0.0
  0
LINE
  5
197
  8
DATA
  6
CONTINUOUS
 62
     7
 10
17.763932022500281
 20
-187.25
 30
0.0
 11
19.25
 21
-187.25
 31
0.0
  0
LINE
  5
198
  8
DATA
  6
CONTINUOUS
 62
     7
 10
20.75
 20
-187.25
 30
0.0
 11
22.236067977499829
 21
-187.25
 31
0.0
  0
LINE
  5
199
  8
DATA
  6
CONTINUOUS
 62
     7
 10
17.763932022500281
 20
-187.75
 30
0.0
 11
19.25
 21
-187.75
 31
0.0
  0
LINE
  5
19A
  8
DATA
  6
CONTINUOUS
 62
     7
 10
20.75
 20
-187.75
 30
0.0
 11
22.236067977499829
 21
-187.75
 31
0.0
  0
ARC
  5
19B
  8
DATA
  6
CONTINUOUS
 62
     7
 10
19.25
 20
-188.25
 30
0.0
 40
0.5
 50
0.0
 51
90.0
  0
ARC
  5
19C
  8
DATA
  6
CONTINUOUS
 62
     7
 10
19.25
 20
-186.75
 30
0.0
 40
0.5
 50
270.0
 51
0.0
  0
ARC
  5
19D
  8
DATA
  6
CONTINUOUS
 62
     7
 10
20.75
 20
-186.75
 30
0.0
 40
0.5
 50
180.0
 51
270.0
  0
ARC
  5
19E
  8
DATA
  6
CONTINUOUS
 62
     7
 10
20.75
 20
-188.25
 30
0.0
 40
0.5
 50
90.0
 51
180.0
  0
CIRCLE
  5
19F
  8
DATA
  6
CONTINUOUS
 62
     7
 10
20.0
 20
-187.5
 30
0.0
 40
2.25
  0
LINE
  5
1A0
  8
DATA
  6
STYLE_01
 62
     7
 10
-124.9084309208901
 20
-16.23114801607743
 30
0.0
 11
-124.04686328492259
 21
38.047613049880169
 31
0.0
  0
LINE
  5
1A1
  8
DATA
  6
STYLE_01
 62
     7
 10
-80.828427124746241
 20
-22.0
 30
0.0
 11
-119.1715728752538
 21
-22.0
 31
0.0
  0
LINE
  5
1A2
  8
DATA
  6
STYLE_01
 62
     7
 10
-75.953136715077463
 20
38.047613049880169
 30
0.0
 11
-75.09156907910986
 21
-16.23114801607738
 31
0.0
  0
LINE
  5
1A3
  8
DATA
  6
STYLE_01
 62
     7
 10
-121.0472411424718
 20
41.0
 30
0.0
 11
-78.952758857528266
 21
41.0
 31
0.0
  0
ARC
  5
1A4
  8
DATA
  6
STYLE_01
 62
     7
 10
-121.0472411424718
 20
38.0
 30
0.0
 40
3.0
 50
90.0
 51
179.0906195508008
  0
ARC
  5
1A5
  8
DATA
  6
STYLE_01
 62
     7
 10
-78.952758857528266
 20
38.0
 30
0.0
 40
2.999999999999992
 50
0.9093804491991067
 51
89.999999999999986
  0
LINE
  5
1A6
  8
DATA
  6
STYLE_01
 62
     7
 10
-120.58578643762689
 20
-21.41421356237311
 30
0.0
 11
-124.322896388296
 21
-17.677103611703949
 31
0.0
  0
LINE
  5
1A7
  8
DATA
  6
STYLE_01
 62
     7
 10
-79.414213562373149
 20
-21.41421356237311
 30
0.0
 11
-75.677103611703984
 21
-17.677103611703949
 31
0.0
  0
ARC
  5
1A8
  8
DATA
  6
STYLE_01
 62
     7
 10
-119.1715728752538
 20
-20.0
 30
0.0
 40
2.0000000000000151
 50
225.0
 51
270.0
  0
ARC
  5
1A9
  8
DATA
  6
STYLE_01
 62
     7
 10
-80.828427124746241
 20
-20.0
 30
0.0
 40
2.0
 50
270.0
 51
315.0
  0
ARC
  5
1AA
  8
DATA
  6
STYLE_01
 62
     7
 10
-77.091317174077091
 20
-16.26289004933081
 30
0.0
 40
2.000000000000036
 50
314.99999999999949
 51
0.9093804491988068
  0
ARC
  5
1AB
  8
DATA
  6
STYLE_01
 62
     7
 10
-122.9086828259228
 20
-16.262890049330899
 30
0.0
 40
2.0000000000000329
 50
179.09061955080031
 51
224.99999999999761
  0
LINE
  5
1AC
  8
DATA
  6
STYLE_01
 62
     7
 10
-4.9084309208900541
 20
-16.23114801607743
 30
0.0
 11
-4.0468632849225523
 21
38.047613049880169
 31
0.0
  0
LINE
  5
1AD
  8
DATA
  6
STYLE_01
 62
     7
 10
39.17157287525378
 20
-22.0
 30
0.0
 11
0.8284271247462129
 21
-22.0
 31
0.0
  0
LINE
  5
1AE
  8
DATA
  6
STYLE_01
 62
     7
 10
44.046863284922537
 20
38.047613049880169
 30
0.0
 11
44.908430920890169
 21
-16.23114801607738
 31
0.0
  0
LINE
  5
1AF
  8
DATA
  6
STYLE_01
 62
     7
 10
-1.047241142471762
 20
41.0
 30
0.0
 11
41.047241142471748
 21
41.0
 31
0.0
  0
ARC
  5
1B0
  8
DATA
  6
STYLE_01
 62
     7
 10
-1.047241142471762
 20
38.0
 30
0.0
 40
3.0
 50
90.0
 51
179.0906195508008
  0
ARC
  5
1B1
  8
DATA
  6
STYLE_01
 62
     7
 10
41.047241142471748
 20
38.0
 30
0.0
 40
2.999999999999992
 50
0.9093804491991067
 51
89.999999999999986
  0
LINE
  5
1B2
  8
DATA
  6
STYLE_01
 62
     7
 10
-0.5857864376268936
 20
-21.41421356237311
 30
0.0
 11
-4.3228963882960443
 21
-17.677103611703949
 31
0.0
  0
LINE
  5
1B3
  8
DATA
  6
STYLE_01
 62
     7
 10
40.585786437626901
 20
-21.41421356237311
 30
0.0
 11
44.322896388296051
 21
-17.677103611703949
 31
0.0
  0
ARC
  5
1B4
  8
DATA
  6
STYLE_01
 62
     7
 10
0.8284271247462129
 20
-20.0
 30
0.0
 40
2.0000000000000151
 50
225.0
 51
270.0
  0
ARC
  5
1B5
  8
DATA
  6
STYLE_01
 62
     7
 10
39.17157287525378
 20
-20.0
 30
0.0
 40
2.0
 50
270.0
 51
315.0
  0
ARC
  5
1B6
  8
DATA
  6
STYLE_01
 62
     7
 10
42.908682825922938
 20
-16.26289004933081
 30
0.0
 40
2.000000000000036
 50
314.99999999999949
 51
0.9093804491988068
  0
ARC
  5
1B7
  8
DATA
  6
STYLE_01
 62
     7
 10
-2.9086828259228241
 20
-16.262890049330899
 30
0.0
 40
2.0000000000000329
 50
179.09061955080031
 51
224.9999999999965
  0
LINE
  5
1B8
  8
DATA
  6
STYLE_01
 62
     7
 10
115.0915690791096
 20
-16.23114801607743
 30
0.0
 11
115.95313671507709
 21
38.047613049880169
 31
0.0
  0
LINE
  5
1B9
  8
DATA
  6
STYLE_01
 62
     7
 10
159.17157287525339
 20
-22.0
 30
0.0
 11
120.8284271247459
 21
-22.0
 31
0.0
  0
LINE
  5
1BA
  8
DATA
  6
STYLE_01
 62
     7
 10
164.04686328492221
 20
38.047613049880169
 30
0.0
 11
164.9084309208898
 21
-16.23114801607738
 31
0.0
  0
LINE
  5
1BB
  8
DATA
  6
STYLE_01
 62
     7
 10
118.9527588575279
 20
41.0
 30
0.0
 11
161.04724114247139
 21
41.0
 31
0.0
  0
ARC
  5
1BC
  8
DATA
  6
STYLE_01
 62
     7
 10
118.9527588575279
 20
38.0
 30
0.0
 40
3.0
 50
90.0
 51
179.0906195508008
  0
ARC
  5
1BD
  8
DATA
  6
STYLE_01
 62
     7
 10
161.04724114247139
 20
38.0
 30
0.0
 40
2.999999999999992
 50
0.9093804491991067
 51
89.999999999999986
  0
LINE
  5
1BE
  8
DATA
  6
STYLE_01
 62
     7
 10
119.41421356237269
 20
-21.41421356237311
 30
0.0
 11
115.6771036117036
 21
-17.677103611703949
 31
0.0
  0
LINE
  5
1BF
  8
DATA
  6
STYLE_01
 62
     7
 10
160.5857864376265
 20
-21.41421356237311
 30
0.0
 11
164.32289638829559
 21
-17.677103611703949
 31
0.0
  0
ARC
  5
1C0
  8
DATA
  6
STYLE_01
 62
     7
 10
120.8284271247459
 20
-20.0
 30
0.0
 40
2.0000000000000151
 50
225.0
 51
270.0
  0
ARC
  5
1C1
  8
DATA
  6
STYLE_01
 62
     7
 10
159.17157287525339
 20
-20.0
 30
0.0
 40
2.0
 50
270.0
 51
315.0
  0
ARC
  5
1C2
  8
DATA
  6
STYLE_01
 62
     7
 10
162.9086828259226
 20
-16.26289004933081
 30
0.0
 40
2.000000000000036
 50
314.99999999999949
 51
0.9093804491988068
  0
ARC
  5
1C3
  8
DATA
  6
STYLE_01
 62
     7
 10
117.09131717407681
 20
-16.262890049330899
 30
0.0
 40
2.0000000000000329
 50
179.09061955080031
 51
224.9999999999965
  0
CIRCLE
  5
1C4
  8
DATA
  6
STYLE_01
 62
     7
 10
-100.0
 20
100.0
 30
0.0
 40
25.0
  0
ARC
  5
1C5
  8
DATA
  6
CONTINUOUS
 62
     7
 10
-100.0
 20
-260.0
 30
0.0
 40
7.9999999999999263
 50
231.10045644322409
 51
223.93731780590849
  0
CIRCLE
  5
1C6
  8
DATA
  6
CONTINUOUS
 62
     7
 10
-100.0
 20
-256.09999999999991
 30
0.0
 40
1.1500000000000341
  0
CIRCLE
  5
1C7
  8
DATA
  6
CONTINUOUS
 62
     7
 10
-103.90000000000001
 20
-259.4500540753541
 30
0.0
 40
1.149999999999977
  0
CIRCLE
  5
1C8
  8
DATA
  6
CONTINUOUS
 62
     7
 10
-96.100000000000037
 20
-259.4500540753541
 30
0.0
 40
1.149999999999977
  0
ARC
  5
1C9
  8
DATA
  6
CONTINUOUS
 62
     7
 10
-105.40277706369611
 20
-265.89999999999992
 30
0.0
 40
0.4999999999999633
 50
135.72810246523611
 51
319.30967178389949
  0
ARC
  5
1CA
  8
DATA
  6
CONTINUOUS
 62
     7
 10
-100.0
 20
-260.0
 30
0.0
 40
16.64999999999992
 50
126.6974921375179
 51
53.30250786248196
  0
LINE
  5
1CB
  8
DATA
  6
CONTINUOUS
 62
     7
 10
-109.9498743710661
 20
-246.65000000000009
 30
0.0
 11
-90.050125628933856
 21
-246.65000000000009
 31
0.0
  0
CIRCLE
  5
1CC
  8
DATA
  6
STYLE_01
 62
     7
 10
-100.0
 20
-260.0
 30
0.0
 40
25.0
  0
LINE
  5
1CD
  8
DATA
  6
CONTINUOUS
 62
     7
 10
17.555031859625721
 20
30.0
 30
0.0
 11
22.44496814037495
 21
30.0
 31
0.0
  0
LINE
  5
1CE
  8
DATA
  6
CONTINUOUS
 62
     7
 10
-102.4449681403743
 20
30.0
 30
0.0
 11
-97.555031859625075
 21
30.0
 31
0.0
  0
LINE
  5
1CF
  8
DATA
  6
CONTINUOUS
 62
     7
 10
124.9999999999996
 20
23.300000000000001
 30
0.0
 11
124.5499999999997
 21
-9.6999999999999993
 31
0.0
  0
ENDSEC
  0
EOF
